Song name
# A B C D E F G H I J K L M N O P Q R S T U V W X Y Z

Alter Bridge - Open Your Eyes Live tab

Help us improve GuitareTab! Take a short survey!
Band- Alter Bridge
Album- One Day Remains
Song- Open Your Eyes(Live)
Tuning- Low to high DADADD

This is exactly how Mark Tremonti plays it when they were playing with the guys from the 
Sox on their website. So, here it is.

Intro
|--------------------------------------------------------------|
|--------------------------------------------------------------|
|--------------------------------------------------------------|
|-7/9-9-7-0-5-5--7/9-9-7-9-0-5-5--7/9-9-7-0-5-5--5/7-7-4-4-5-5-|
|-7/9-9-7-0-5-5--7/9-9-7-9-0-5-5--7/9-9-7-0-5-5--5/7-7-4-4-5-5-|
|-7/9-9-7-0-5-5--7/9-9-7-9-0-5-5--7/9-9-7-0-5-5--5/7-7-4-4-5-5-|

Verse
|-0---5------------------------------|
|-0---5------------------------------|
|-4---5------------------------------|
|-4---5-5--7/9-9-7-0-5--7/9-9-7-0-12-|
|-2---5-5--7/9-9-7-0-5--7/9-9-7-0-12-|
|-----5-5--7/9-9-7-0-5--7/9-9-7-0-12-|

|-0--5---------------------------------|
|-0--5---------------------------------|
|-4--5---------------------------------|
|-4--5-5--7/9-9-7-0-12-12--5/7-7-4-5-5-|
|-2--5-5--7/9-9-7-0-12-12--5/7-7-4-5-5-|
|----5-5--7/9-9-7-0-12-12--5/7-7-4-5-5-|

|-0--5---------0--5-|
|-0--5---5/7\5-0--5-|
|-4--5---------4--5-|
|-4--5-0-------4--5-|
|-2--5-0-------2--5-|
|----5-0----------5-|

Chorus(Not exact strumming pattern)
|----------------|----------|
|----------------|----------|
|-7-7------------|-7-7------|
|-7-7--9-5--7--5-|-7-7--9-5-|
|-5-4--9-5--7--5-|-5-4--9-5-|
|------9-5--7--5-|------9-5-|

Clean Bridge
|-0--------------------0---------|
|-0-0----------2h4p2-0-2-2h4p2-0-|
|-4---4----------------0---------|
|-4-----4-5-0----------0---------|
|-2-------5-0----------0---------|
|---------5-0----------0---------|

Distorted Bridge
|-0--5----------------------|
|-0--5----------------------|
|-4--5----------------------|
|-4--5--0-0-5-5--0-0-5-5----|
|-2--5--0-0-5-5--0-0-5-5----|
|----5--0-0-5-5--0-0-5-5-5/-|

Solo Ryhthm
|-0--5------------|
|-0--5------------|
|-4--5--7-7-------|
|-4--5--7-7--9--5-|
|-2--5--5-4--9--5-|
|----5-------9--5-|

Solo Build-up
|-12b12v--14b14v-|
|----------------|
|----------------|
|----------------|
|----------------|
|----------------|

SOLO
|-16b-16-17-19-21p16h17p16\17-|
|-----------------------------|
|-----------------------------|
|-----------------------------|
|-----------------------------|
|-----------------------------|

|-----------------------------------------------------------------------|
|-19-16--------16-19-16--------16-17-16--------16-17-16--------16-17-16-|
|------17-16-17--------17-16-17--------17-16-17--------17-16-17---------|
|-----------------------------------------------------------------------|
|-----------------------------------------------------------------------|
|-----------------------------------------------------------------------|

|-----------------------------------------------------------------------------------|
|---16-19-16--16-21-16--------16-21-16--------14-16-14--------14-16-14--------14-16-|
|-17--------17--------17-16-17--------17-16-17--------17-16-17--------17-16-17------|
|-----------------------------------------------------------------------------------|
|-----------------------------------------------------------------------------------|
|-----------------------------------------------------------------------------------|

|-------------------------19------------------------------|
|-16-17-19-17-16-17--16-17--17-16--16-17-19-17-16--16-17v-|
|------------------19------------19--------------19-------|
|---------------------------------------------------------|
|---------------------------------------------------------|
|---------------------------------------------------------|

|--------------------------------------------------------|
|-19-17-16-----------------------------------------------|
|---------17-19-17-16--------19-17-16--------------------|
|--------------------19-17-16--------19-17-16-19-17------|
|--------------------------------------------------19-17-|
|--------------------------------------------------------|

|-----------------------------------------------------22b-22b-22b\-|
|-------------------------19---------------------------------------|
|--------------19-17-16-17--16-17-19-17--16-17-19-16v--------------|
|------19-16-17------------------------19--------------------------|
|-16-17------------------------------------------------------------|
|------------------------------------------------------------------|

Solo Ending/Whammy Bar Pedal
|-19v-----19v---|
|---------------|
|---------------|...he ends it with a pick slide
|---------------|
|---------------|
|---------------|

The outro is the same as the verse.

Amazing solo in this song. Tremonti really hit it with Myles Kennedy. He sounds awesome. ENJOY!!!!!!
Related for Open Your Eyes Live tab