Song name
# A B C D E F G H I J K L M N O P Q R S T U V W X Y Z

Alvin And The Chipmunks - Jingle Bells tab

-------------------------------------------------------------------------------
			     band:three blind mice??bet you don't know
                                         song:Jingle Bells
-------------------------------------------------------------------------------
Tabbed by:eadous420
Email:rob_ead_666@hotmail.com

Tuning:standard
Part 1
e|-2-2-2--2-2-2--2--5-----2--3-3-3--3-3--2-2--2-2-2---2---5--|
B|-3-3-3--3-3-3--3----3-5---------------------------5---5----|
G|-----------------------------------------------------------|
D|-----------------------------------------------------------|
A|-----------------------------------------------------------|
E|-----------------------------------------------------------|
Part 2
e|---2----------2----------3-2-3-5-7-5-------------------------------------------------|
B|-----5-3--------5-3------------------5-6-7-------------------------------------------|
G|-2-------2--2-------4--4-------------------------------------------------------------|
D|-------------------------------------------------------------------------------------|
A|-------------------------------------------------------------------------------------|
E|-------------------------------------------------------------------------------------|

Dashing through the snow
In a one horse open sleigh
O'er the fields we go
Laughing all the way
Bells on bob tails ring
Making spirits bright
What fun it is to laugh and sing
A sleighing song tonight

Oh, jingle bells, jingle bells
Jingle all the way
Oh, what fun it is to ride
In a one horse open sleigh
Jingle bells, jingle bells
Jingle all the way
Oh, what fun it is to ride
In a one horse open sleigh

A day or two ago
I thought I'd take a ride
And soon Miss Fanny Bright
Was seated by my side
The horse was lean and lank
Misfortune seemed his lot
We got into a drifted bank
And then we got upsot

Oh, jingle bells, jingle bells
Jingle all the way
Oh, what fun it is to ride
In a one horse open sleigh
Jingle bells, jingle bells
Jingle all the way
Oh, what fun it is to ride
In a one horse open sleigh yeah

Jingle bells, jingle bells
Jingle all the way
Oh, what fun it is to ride
In a one horse open sleigh
Jingle bells, jingle bells
Jingle all the way
Oh, what fun it is to ride
In a one horse open sleigh
|


Well it my first tab because all  the other jingle bells tab were gay so Merry Christmas
Tap to rate this tab
# A B C D E F G H I J K L M N O P Q R S T U V W X Y Z