Song name
# A B C D E F G H I J K L M N O P Q R S T U V W X Y Z

Aly And Aj - Closure tab

The song is played in standard on a 7 string guitar. If you're playing a six string 
have to tune all the way down to B standard to hit those low chords.


Intro + Verse (Clean):
------------------------------------------------|
------------------------------------------------|
------------------------------------------------|
------------------------------------------------|
----5-4--------5-4--------5-4-4------7-5-5------|
--------7----------5----------------------------|
-0----------0----------3----------5-------------|(Let the Low B notes ring)


Chorus:
----------------------------------------------------|
----------------------------------------------------|
----------------------------------------------------|
----------------------------------------------------|
-2----2-2----2----2-2----5----5-5----5/-5-5-5-5-----|
-2----2-2----2----2-2----5----5-5----5/-5-5-5-5-----|
-0----0-0----0----0-0----3----3-3----3/-7-7-7-7-----|
pm    . .         . .

----------------------------------------------------|
----------------------------------------------------|
----------------------------------------------------|
----------------------------------------------------|
-2----2-2----2----2-2----5----5-5\-4-4-4-4-4-4------|
-2----2-2----2----2-2----5----5-5\-4-4-4-4-4-4------|
-0----0-0----0----0-0----3----3-3\-2-2-2-2-2-2------|
pm    . .         . .

Backing Riff (Plays silently behind the 2nd verse and the last chorus)
----------------------------------------------------|
-/7-\-5-/-10-/-12---------/7-\-5-/-10-\-9-----------|
-/x-\-x-/-x--/-x----------/x-\-x-/-x--\-x-----------|
-/4-\-2-/-7--/-9----------/4-\-2-/-7--\-6-----------|
----------------------------------------------------|
----------------------------------------------------|
----------------------------------------------------|

Interlude + Mini Solo:
---------------------------------------------------------------|
---------------------------------------------------------------|
---------------------------------------------------------------|
---------------------------------------------------------------|
-9--9-9--9\-7-/-10--10-10-10-10--12-/-14-\-12-\-11-/-12-\-11---|
-9--9-9--9\-7-/-10--10-10-10-10--12-/-14-\-12-\-11-/-12-\-11---|
-7--7-7--7\-5-/-8---8--8--8--8---10-/-12-\-10-\-9--/-10-\-9----|
pm  . .

---------------------------------------------------------------|
---------------------------------------------------------------|
-11--13-14--11--13-14-14-14-14b-13-----------------------------|
---------------------------------------------------------------|
---------------------------------------------------------------|
---------------------------------------------------------------|
---------------------------------------------------------------|x2

-------------------------------------------------------------------------|
-14--16-17--14-16-14-17b-17b-17b-16--------------------------------------|
-------------------------------------11-13-14-11-13-14-11-13-14-11-13-14-|
-------------------------------------------------------------------------|
-------------------------------------------------------------------------|
-------------------------------------------------------------------------|
-------------------------------------------------------------------------|

--------------------------------------------------------------------------|
--------------------------------------12-14-15-12-14-15-12-14-15-12-14-15-|
-13-15-16-13-15-16-13-15-16-13-15-16--------------------------------------|
--------------------------------------------------------------------------|
--------------------------------------------------------------------------|
--------------------------------------------------------------------------|
--------------------------------------------------------------------------|

----------------------------------------------------------|
-14-16-17-14-16-17-14-16-17-14-16-17-17b^-----------------|
----------------------------------------------------------|
----------------------------------------------------------|
---------------------------------------------2------------|
---------------------------------------------2------------|
---------------------------------------------0------------| (Let Ring)

And there you have it, all the parts are played in this order:

Verse
Chorus
Verse (With Backing Riff)
Chorus
Interlude
Mini Solo (With Interlude Riff Backing)
Verse
Chorus
Chorus (Well, really the Verse and the Backing Riff, lyrics are the chorus)
Tap to rate this tab
# A B C D E F G H I J K L M N O P Q R S T U V W X Y Z