Song name
# A B C D E F G H I J K L M N O P Q R S T U V W X Y Z

Amarna Reign - Deceiver tab

Band:   Amarna Reign
Song:   Deceiver
Album:  Atonement
Tab by: Jared


Guitar 1
|------------------------------------------15-----------------|
|-----15----15-17----15-17-18----15-17-18-----18-17-15-14-15--|
|--14----14-------14----------14------------------------------|
|-------------------------------------------------------------|
|-------------------------------------------------------------|
|-------------------------------------------------------------|

|--17-18-15-17------------------------------------------------|
|--------------18-17-18-17-15-14-------15-17------------------|
|--------------------------------15-14-------15-14------------|
|-------------------------------------------------------------|
|-------------------------------------------------------------|
|-------------------------------------------------------------|

Repeat as needed. I saw the other tab on here and it didn't seem right to me so I 
I would share my version. Tabbed by ear using Audacity to slow the speed so I know I got every 
:D
Tap to rate this tab
# A B C D E F G H I J K L M N O P Q R S T U V W X Y Z