Song name
# A B C D E F G H I J K L M N O P Q R S T U V W X Y Z

Amarna Reign - Deceiver tab

Song:   Deceiver
Album:  Atonement
Band:   Amarna Reign
Tuning: Drop B
Tabbed by:
Cj Crovo

Guitar 1
|------------------------------------------16-------------|
|-----16----16-18----16-18-19----16-18-19-----19-18-16-15-|
|--15----15-------15----------15----------15--------------|
|---------------------------------------------------------|
|---------------------------------------------------------|
|---------------------------------------------------------|
   Repeat As Many Time As In The Song
|--16-18-19-16--------------------------------------------|
|--------------19-18-18-19-18-17-16-15----18-19-----------|
|--------------------------------------15-------15--------|
|---------------------------------------------------------|
|---------------------------------------------------------|
|---------------------------------------------------------|

Guitar 2
|----------------------------------------------------------|
|----------------------------------------------------------|
|----------------------------------------------------------|
|----------------------------------------------------------|
|-0-0-000-0-00-0-0-0-000-0-00-0-0-0-000-0-00-0-0-0-000-----|
|-0-0-000-0-00-0-0-0-000-0-00-0-0-0-000-0-00-0-0-0-000-----|
  . . ... . .. . . . ... . .. . . . ... . .. . . . ...
Tap to rate this tab
# A B C D E F G H I J K L M N O P Q R S T U V W X Y Z