Song name
# A B C D E F G H I J K L M N O P Q R S T U V W X Y Z

Amazing Transparent Man - Autumn tab

Band: Amazing Transparent Man
Song: Autumn

Tuning: Standard


Intro                                                Intro ending
e|-------------------------------------------|-----------------------------|
B|-------------------------------------------|-----------------------------|
G|-------------------------------------------|-----------------------------|
D|-7-77--5-55--4-4--3---5--555555--5-5--5----|---9~b/10\-------------------|
A|-7-77--5-55--4-4--3---5--555555--5-5--5----|---9~b/10\-------------------|
E|-5-55--3-33--2-2--1---3--333333--3-3--3----|---7~b/8\--------------------|
     ..    ..    .         ......    .

Verse Chords
e|---------------------|
B|---------------------|
G|---------------------|
D|---4----6----4----2--|
A|---4----6----4----2--|
E|---2----4----2----0--|


Chorus Chords "And now I got my future made.."
e|---------------|
B|---------------|
G|---------------|
D|--5----4----2--|
A|--5----4----2--|
E|--3----2----0--|



Bridge
e|-------------------------------------------------------------------------|
B|-------------------------------------------------------------------------|
G|-------------------------------------------------------------------------|
D|-4-------4-------4-------2~-5-4-2----------------------------------------|
A|-4-2-3-5-4-2-3-5-4-2-3-5-------------------------------------------------|
E|-2-------2-------2-------------------------------------------------------|


Solo pt.1
e|----------------------------------|
B|----------------------------------|
G|----------------------------------|
D|-------------------------5---54---|
A|-2--222-4--222222-5--222---22--3--|
E|----------------------------------|
      ...    ......    ...   .....

Key

b = bend
/ = slide up
\ = slide down
~ = vibrato
p.m. = ...
Tap to rate this tab
# A B C D E F G H I J K L M N O P Q R S T U V W X Y Z