Guitaretab - guitar tabs
Song name
# A B C D E F G H I J K L M N O P Q R S T U V W X Y Z

America - Star Spangled Banner tab

e: --0------0-59-7-5--------------9-7-54-2-4-5-5------------------------|
B: ---2---2--------------2-4-5---5-------------------------5-2------------|
G: -----2-----------------------------------------------------------2-----|
D: -----------------------------------------------------------------------|
A: -----------------------------------------------------------------------|
E: -----------------------------------------------------------------------|
[ Tab from: http://www.guitaretab.com/a/america/132182.html ]
e: ---9-9-9-10-12-1210-9-7-9-10-10---9-7-5-4-2-4-5-5-----------------------|
B: ----------------------------------------------------5-2------------------|
G: ---------------------------------------------------------------2---------|
D: -------------------------------------------------------------------------|
A: -------------------------------------------------------------------------|
E: -------------------------------------------------------------------------|

e: -----------------------------8-7----------------|
B: ------8-8-8-7---------10-------10-8-8-7---------|
G: ---7------------9-9-9---------------------------|
D: ------------------------------------------------|
A: ------------------------------------------------|
E: ------------------------------------------------|

e: ---------------7-8-10--------7-8-------------|
B: ---------8-10----------8-10------10-8--------|
G: ---7-7---------------------------------------|
D: ---------------------------------------------|
A: ---------------------------------------------|
E: ---------------------------------------------|
Related for Star Spangled Banner tab