Song name
# A B C D E F G H I J K L M N O P Q R S T U V W X Y Z

American Authors - Best Day Of My Life chords

Highlighted       Show chord diagrams
Best Day of My Life
American Authors

Acoustic/ Live version

Hey guys, the chords should be spot on. I watched a bunch of videos of them playing it live and
 acoustic live so the chords are accurate. It sounds right too, so enjoy! Also, they
play this song a few
 different ways from song to song, video to video, and show to show. All of the chords and the intro
 are here, so you can just adapt them to whichever version of the song that youre playing with. :)

The banjo part that plays in the intro is tabbed out at the bottom, its definitely accurate. There are
two versions of it for those of you who dont want to stretch your fingers, although version one is
exact and version 2 is the same notes, but played lower at the 7th fret. Youll see!

Have fun guys!


Wooo woo-oo-oo-oo ooo


    D
I had a dream so big and loud
                                D
I jumped so high I touched the clouds


G
Whoa-oh-oh-oh-oh-ooh-oh
                        G
Whoa-oh-oh-oh-oh-ooh-oh


D
I stretched my hands out to the sky
                                      D
We danced with monsters through the night


G
Whoa-oh-oh-oh-oh-ooooh-oh
                        G
Whoa-oh-oh-oh-oh-ooooh-oh


     Bm
Im never gonna look back

Whoa
   D
Im never gonna give it up
             G
Nooo-oo-oo please dont wake me now



1 - 2 - 3 - 4


D
Woo-oo-oo-oo-oo oo
                                    G
This is gonna be the best day of my life

my life
D
Woo-oo-oo-oo-oo oo
                                    G
This is gonna be the best day of my life

my life


D
Woo-oo-oo-oo-oo oo
G
Woo-oo-oo-oo-oo oo


D
I howled at the moon with friends
                          D
and then the sun came crashing in
G
Woo-oo-oo-oo-oo oo

Woo-oo-oo-oo-oo oo


D
And all the possibilities

no limits just epiphanies
G
Woo-oo-oo-oo-oo oo

Woo-oo-oo-oo-oo oo


       Bm
Im never gonna look back

Whoa
         D
Im never gonna give it up
           G
Nooo-oo-oo just dont wake me now



WOOO


D
Woo-oo-oo-oo-oo oo
                                     G
This is gonna be the best day of my life

my life
D
Woo-oo-oo-oo-oo oo
                                      G
This is gonna be the best day of my life

my life


D
Woo-oo-oo-oo-oo oo
G
Woo-oo-oo-oo-oo oo


D
Well I hear it calling

Outside my window

I feel it in my soul
D
The sun was out til midnight

The stars were burning so bright

I say we lose control



(intro banjo part plays again, the rhythm guitar plays these chords)

D - D


D             D
Woo-oo-oo-oo-oo oo

D
Woo-oo-oo-oo-oo oo
                                     G
This is gonna be the best day of my life

my life
D
Woo-oo-oo-oo-oo oo
                                    G
This is gonna be the best day of my life

my life


D
This is gonna be, this is gonna be, this has gotta be
           G
The best day of my life

Well everything is looking up

Everybody up now


D                                             G
Oooohhh this is gonna be the best day of my life

my life



Banjo Intro: Version 1

e|--------10--14--12--10------10----------10--14--12--10----17--14--12--14---------|
B|-*--10------------------12----------10-------------------------------------*-----|P T
G|---------------------------------------------------------------------------------|L W
D|---------------------------------------------------------------------------------|A I
A|-*-------------------------------------------------------------------------------| |Y C
E|---------------------------------------------------------------------------------| |  E


Banjo intro: Version 2
e|-----------------------------------------------------------------------------|
B|--------7--------------------------7--------10--7-----7----------------------|
G|-----7-----9--7-----7-----------7-----9--7---------9-------------------------|
D|--7--------------9-----------7-----------------------------------------------|
A|-----------------------------------------------------------------------------|
E|-----------------------------------------------------------------------------|
Tap to rate this tab
# A B C D E F G H I J K L M N O P Q R S T U V W X Y Z