Song name
# A B C D E F G H I J K L M N O P Q R S T U V W X Y Z

American Hi Fi - Beautiful Disaster tab

Artist: American Hi-Fi
Song: Beautiful Disaster
Album: the Art of Losing
Tuning: Drop D
Composer: Stacy Jones

Main Riff/Verse
|---------------------------|
|---------------------------|
|-5-55----------------------|
|-5-55-3-3-5-5-1-11-6-6-0-0-|
|-3-33-3-3-5-5-1-11-6-6-0-0-|
|------3-3-5-5-1-11-6-6-0-0-|

End Verse With This
|-----------------|
|-----------------|
|-5-5-5-5-5-5-5-5-|
|-5-5-5-5-5-5-5-5-|
|-3-3-3-3-3-3-3-3-|
|-----------------|

Pre Chorus Guitar 1
|-------------------------------|
|-------------------------------|
|-5-5-5-5-5--5------------------|
|-5-5-5-5-5--5--6-6-6-6-6-6-6-6-|
|-3-3-3-3-3--3--6-6-6-6-6-6-6-6-|
|---------------6-6-6-6-6-6-6-6-|

Pre Chorus Guitar 2
|-------------------------------|
|-9-9-9-9-9--9--9-9-9-9-9-9-9-9-|
|-7-7-7-7-7--7--7-7-7-7-7-7-7-7-|
|-------------------------------|
|-------------------------------|
|-------------------------------|

Chorus Guitar 1
|---------------------------------|
|---------------------------------|
|---------------------------------|
|-3-3-3-3-3-3-3-3-6-6-6-6-2-2-2-2-|
|-3-3-3-3-3-3-3-3-6-6-6-6-2-2-2-2-|
|-3-3-3-3-3-3-3-3-6-6-6-6-2-2-2-2-|

Chorus Guitar 2
|---------------------------------|
|---------------------------------|
|-5-5-5-5-5-5-5-5-8-8-8-8-4-4-4-4-|
|-5-5-5-5-5-5-5-5-8-8-8-8-4-4-4-4-|
|-3-3-3-3-3-3-3-3-6-6-6-6-2-2-2-2-|
|---------------------------------|

"What a beautiful disaster"          End With
|---------------------------------|--------------|
|---------------------------------|--------------|
|-5-55----------------------------|--------------|
|-5-55----------------------------|-1-11-6-6-0-0-|
|-3-33----------------------------|-1-11-6-6-0-0-|
|---------------------------------|-1-11-6-6-0-0-|

3rd Verse                      End With
|---------------------------|----------------------------|
|---------------------------|----------------------------|
|-5-55----------------------|-5-55-----------------------|
|-5-55-3-3-5-5-1-11-6-6-0-0-|-5-55-3-3-5-5-1-11-3~~~-----|
|-3-33-3-3-5-5-1-11-6-6-0-0-|-3-33-3-3-5-5-1-11-3~~~-----|
|------3-3-5-5-1-11-6-6-0-0-|------3-3-5-5-1-11-3~~~-----|
Tap to rate this tab
 
# A B C D E F G H I J K L M N O P Q R S T U V W X Y Z