Song name
# A B C D E F G H I J K L M N O P Q R S T U V W X Y Z

American Hi Fi - Scar tab

Artist: American Hi-Fi
Song: Scar
Album: American Hi-Fi
Tuning: Drop D
Composer: Stacy Jones

Intro
|----------------------------------|
|----------------------------------|
|-/5-5-8-7-5-5-4-5-6-6-6-6-8-8-8-8-|
|-/5-5-8-7-5-5-4-5-6-6-6-6-8-8-8-8-|
|-/3-3-6-5-3-3-2-3-4-4-4-4-6-6-6-6-|
|----------------------------------|

Verse (played throughout verse, easy to figure out)
|----------|
|----------|
|-7--------|
|-x--------|
|-5--------|
|----------|

Pre Chorus (easy to figure out the timing)
|-------------------|
|-------------------|
|-5--------7--------|
|-x--------x--------|
|-3--------5--------|
|-------------------|

Chorus
|-----------------------------------------------------------------|
|-----------------------------------------------------------------|
|-7-7-7-7-7-7-7-7-5-5-5-5-5-5-5-5-7-7-7-7-7-7-7-7-4-4-4-4-4-4-4-4-|
|-7-7-7-7-7-7-7-7-5-5-5-5-5-5-5-5-7-7-7-7-7-7-7-7-4-4-4-4-4-4-4-4-|
|-5-5-5-5-5-5-5-5-3-3-3-3-3-3-3-3-5-5-5-5-5-5-5-5-2-2-2-2-2-2-2-2-|
|-----------------------------------------------------------------|

rest of the song coming soon
Tap to rate this tab
# A B C D E F G H I J K L M N O P Q R S T U V W X Y Z