Song name
# A B C D E F G H I J K L M N O P Q R S T U V W X Y Z

Amir Zaki - Mera Pyar tab

Help us improve GuitareTab! Take a short survey!
C1(032013)
(Intro)
Em (upstrum)  C D

(Em)Mera Tumhaara 
(Am)Woh ghar ha(C)maa(D)ra
(Em)toota hai bikhraa hai
(Am)jaise si(C)taa(D)ra 

(C)meri awaaz sun le(D)na 
mere geeton me (Em)tum 
(C)woh alfaz chun le(D)na 
jo ho jaate they (B)gum

(Em)mera pyaar tum (D) hi ho 
tum hi to (C1) ho
(C)jaa(D)na
(En)mera saath tum (D)hi ho
tum hi to (C1) ho
(C) bhulaana (D)naa
(Em) mera pyaar tum (D)hi ho

Now the same chords for rest of the song.

Waade iraade 
kaise bhulaa de
Toota hai jo dil
wo roye rula de

meri awaaz sun lena 
mere geeton me tum
woh alfaz chun lena 
jo ho jaate they gum

mera pyaar tum hi ho
tum hi to ho
jaana
mera saath tum hi ho
tum hi to ho
bhulaana naa
mera pyaar tum hi ho


Solo:
This is the part played on the acoustic guitar
e|-7-5---7~----7-5---5-7-5----------------7-5---7~---7-5---5-7-5--------------|
B|-----8-----------8-------7-8-7-5-5----------8----------8--------------------|
G|----------------------------------------------------------------------------|
D|----------------------------------------------------------------------------|
A|----------------------------------------------------------------------------|
E|----------------------------------------------------------------------------|

This is where the electric guitar comes in
e|----------------------------------------------------------------------------|
B|---5-5-5-5---5----/12-12-12-10p8----10-10-10-10----8------------------------|
G|-7---------7------------------------------------11---11----9----------------|
D|--------------------------------------------------------12---12-9-----------|
A|----------------------------------------------------------------------------|
E|----------------------------------------------------------------------------|

e|----------------------------------------------------------------------------|
B|----------------------------------------------------------------------------|
G|-9----9-11-9----------------------------------------------------------------|
D|---12--------12---12-9----9---9---------------------------------------------|
A|-----------------------12-------12-10-12---12-10-9-10-----------------------|
E|----------------------------------------------------------------------------|

e|----------------------------------------------------------------------------|
B|----------------------------------------------------------------------------|
G|-/12-11-9-------------------------------------------------------------------|
D|----------13-10-9--------------9~-------------------------------------------|
A|------------------10-9----9-10----------------------------------------------|
E|-----------------------12---------------------------------------------------|
  


 
Related for Mera Pyar tab