Song name
# A B C D E F G H I J K L M N O P Q R S T U V W X Y Z

Amon Amarth - Guardians Of Asgaard tab

B tuning
My first tab
Doesn't have all the muted notes in between
Just the basics
Times are to the version from iTunes

Intro/Chorus (0:00-0:17)
|-------------------------|                 |-----|
|-------------------------|                 |-----|
|-------------------------|Repeat as needed |-----| Played in between
|-------------------------|                 |-----|
|-------------------------|                 |-5-5-|
|-2-2-5-2-3---2-2-5-2-3-5-|                 |-3-3-|
                                              * *
Verse (0:17-0:43)
|---------------------------------------|
|---------------------------------------|
|---------------------------------------|
|---------------------------------------|
|-9-7-4-4---5-7-4-4---5-5-4-4---2-2-4-4-|
|---------------------------------------|

Verse 2 (0:44-1:11)
|------------------------------------------------------------------------------|
|------------------------------------------------------------------------------|
|-6-4-6-2--4-6-2-4----7-6-7-5--6-7-6-5----6-4-6-2--4-6-2-4----7-6-7-5--6-7-6-5-|
|------------------------------------------------------------------------------|
|------------------------------------------------------------------------------|
|------------------------------------------------------------------------------|
I know there's more to it than that but I've only been working on it for a half an hour

Repeat Intro/Chorus

Repeat Verse

Repeat Verse 2

Bridge (2:39-3:25) Fast Picking, listen to the song
|-------------------------------------------------------------------------------|
|-------------------------------------------------------------------------------|
|-------------------------------------------------------------------------------|
|-11-9-11-7--11-9-7----12-11-12-9--12-11-9----11-9-11-7--11-9-7----9-7-6--9-7-6-|
|-------------------------------------------------------------------------------|
|-------------------------------------------------------------------------------|

I don't know the solo yet.
I'll figure it out soon.


Tap to rate this tab
 
# A B C D E F G H I J K L M N O P Q R S T U V W X Y Z