Song name
# A B C D E F G H I J K L M N O P Q R S T U V W X Y Z

Amon Amarth - The Hero tab

hey, this song is really good, taken me like LONG to tab, its alright, few
mistakes. enjoy...comment...rate....cheers.

Amon Amarth
The Hero
Twilight Of The Thunder


Intro part

B|---------------|
F#---------------|
D|---------------|
A|-------3-2-----|
E|-3-2-0-1-0-3-0-|
A|-3-2-0-----3-0-|

B|------------------------------|
F#------6----5----8----5----6---| X3
D|----------------------------7-|
A|---7----7----7----7----7------|
E|-5----5----5----5----5--------|
A|------------------------------|

then.

B|------------------------6--5-------|
F#------6----5----6--5----------6----|
D|----------------------7----------7-|
A|---7----7----7---------------------|
E|-5----5----5-----------------------|
A|-----------------------------------|
Tap to rate this tab
# A B C D E F G H I J K L M N O P Q R S T U V W X Y Z