Song name
# A B C D E F G H I J K L M N O P Q R S T U V W X Y Z

Amplifier - Motorhead tab

Amplifier - Motorhead
Tabber: Mike Tapia
Tuning: Dropped Db (Eb|Bb|Gb|Db|Ab|Db)

www.amplifiertheband.com


As far as I'm aware, this tab (as is most Amplifier songs) is in Drop Db tuning 
feel free to question Sel on this). I'm tabbing this on E standard with only my E string tuned 
Db because I'm lazy but it should
be all correct. Also, bare in mind the amount of effects the band use so it might not 
sound perfect when
you play it normaly.

    [0:00 - 0:12]    [            x4          ]

Eb----------------------------------------------|
Bb----------------------------------------------|
Gb-----11-------------7---------------7---------|
Db--------------------7---------------7---------|
Ab--------------------5---------------5---------|
Db----------------0----------0--0--0------------|

   [                         x2                             ]
Eb------------------------------------------------------------|
Bb------------------------------------------------------------|
Gb---------11-11--------11-11-----------13--13---------13--13-|
Db---------x--x---------x--x------------x----x---------x----x-|
Ab---------9--9---------9--9------------11--11---------11--11-|
Db--0---0--------0---0-----------0---0----------0---0---------|


     Main riff  [2x]
Eb-----------------------------------------------------------------------------|
Bb-----------------------------------------------------------------------------|
Gb-----------------------------------------------------------------------------|
Db-----------------------------------------------------------------------------|
Ab-3--5--3---------0---0--3--5--0---0---3-5-3-5---3---3---3--5--3---3---3-5-3--|
Db-3--5--3--5b--3--0---0--------0---0-------------3---3---------3---3----------|

Eb---------------------------------------------|
Bb---------------------------------------------|
Gb---------------------------------------------|
Db---------------------------------------------|
Ab-0---0--3--5--0---0---3-5-3-5---3---3---3--5-|
Db-0---0--------0---0-------------3---3--------|


Ab--3--5--3---------|Main Riff above and to left - Repeat clean for the verse
Db--3--5--3--5b--3--|

**1:36 and 2:11 - 2:37 (this time it plays 8 times)**

   [ pre chorus riff     x4   ]
Eb-----------------------------------------------------------|
Bb-----------------------------------------------------------|
Gb-----------------------------------------------------------|
Db--9-----10-----9----10----9--------------------------------|
Ab----10-----10----10----10------3-5--3-5--3-5--3-5-3-5--3---|
Db-------------------------------3-5--3-5--3-5--3-5-3-5--3---|


**2:41**

Eb------------------------------------------------------|
Bb------------------------------------------------------|
Gb------------------------------------------------------|
Db------------------------------------------------------|
Ab--0--0--3-5-3---------------3-5--3-5--3-5--3-5-3-5--3-|
Db--0--0---------7--0-7-10-7--3-5--3-5--3-5--3-5-3-5--3-|


Eb-------------------------------------------------------|
Bb-------------------------------------------------------|
Gb-------------------------------------------------------|
Db-------------------------------------------------------|
Ab-0--0--3-5-3-----------------3-5--3-5--3-5--3-5-3-5--3-|
Db-0--0---------10-9-7-9-7-3-0-3-5--3-5--3-5--3-5-3-5--3-|


Eb------------------------------------------------|
Bb------------------------------------------------|
Gb------------------------------------12-12-12--7-|
Db-----------------------10-10-10-10--12-12-12--7-|
Ab-0--0--3-5-3--7--5--7--8--8--8--8---10-10-10--5-|
Db-0--0---------7-------------------------------0-|

Eb-----------------------------------------------------------|
Bb------------------------------------------------------7----|
Gb-----------------------------------12-12-12-12---7----7----|
Db----------------------10-10-10-10--12-12-12-12---7----7----|
Ab-0--0--3-5-3-----5-7--8--8--8--8---10-10-10-10---5----5----|
Db-0--0---------7----------------------------------0----0----|

Play Main Riff through and into next verse...
Pre chorus riff x8


Eb------------------------------------------------------|
Bb------------------------------------------------------|
Gb------------------------------------------------------|
Db------------------------------------------------------|
Ab--0--0--3-5-3---------------3-5--3-5--3-5--3-5-3-5--3-|
Db--0--0---------7--0-7-10-7--3-5--3-5--3-5--3-5-3-5--3-|


Eb------------------------------------------------------------|
Bb------------------------------------------------------------|
Gb-------------------------------------------/10-12-10-12-10--|
Db-------------------------------------------/10-12-10-12-10--|
Ab-0--0--3-5-3-----------------3-5--3-5--3-5-/8--10-8--10-8---|
Db-0--0---------10-9-7-9-7-3-0-3-5--3-5--3-5------------------|


**4:41**

Eb---------------------------------------------------------------------------------------------------|
Bb---------------------------------------------------------------------------------------------------|
Gb---------------------------------------------------------7--7--------------------------------------|
Db---------------------------------------------------------7--7--0-----------------------------------|
Ab-0--0--3-5-3---------------3-5--3-5--3-5--5-5-5-5-5-5----5--5--0-----------------------------------|
Db-0--0---------7--0-7-10-7--3-5--3-5--3-5--5-5-5-5-5-5----0--0--0-----------------------------------|
                                          [gradual bend]          [let ring
                                             and back             throughout
                                                                  upper solo]

upper solo being a constant rising scale, couldn't quite get to it but it carries on 
as far as your guitar can handle and then it goes back to  the first chord again.....let 
feedback drown you away.

I hope this is okay for you!

Mike.
Tap to rate this tab
# A B C D E F G H I J K L M N O P Q R S T U V W X Y Z