Song name
# A B C D E F G H I J K L M N O P Q R S T U V W X Y Z

Amy Winehouse - Fools Gold tab

Highlighted       Show chord diagrams
these are the patterns for the song..I think they're easy to figure them out...

VERSE:
    F#m7    Abm7    Am7    Emaj7   Bm7      E11
e|----2-------4------5-------4-------2--------2--------|
B|----2-------4------5-------4-------3--------3--------|
G|----2-------4------5-------4-------2--------2--------| 4x
D|----2-------4------5-------6-------4--------2--------|
A|----4-------6------7-------7-------2--------2--------|
E|----2-------4------5------------------------0--------|

CHORUS:
       A       Am7     Abm7     Fdim
e|-----5--------5-------5--------4-------|
B|-----5--------5-------4--------3-------|
G|-----6--------5-------4--------4-------| 2x
D|-----7--------5-------4--------3-------|
A|-----7--------7-------6----------------|
E|-----5--------5-------4----------------|


Tap to rate this tab
# A B C D E F G H I J K L M N O P Q R S T U V W X Y Z