Song name
# A B C D E F G H I J K L M N O P Q R S T U V W X Y Z

An Angle - White Horse tab

Help us improve GuitareTab! Take a short survey!
Highlighted       Show chord diagrams
*This is my third tab but i spent alot of time on this one. This song is very tricky to
out but its amazing to play once you've got it. I looked at the other versions of the
to the song but they didnt match up..i dont know if it's just me or not. But i hope 
are right. It sounds really close to me so here ya go hope its good :)

Capo 3

Intro:

e--------0------------0-------------0----------0-----|
B----------------------------------------------------|
G---2-2----2----2-2-----2----2-2------2----2-2---2---|
D---------------0-0----------3-3-----------0-0-------|
A---0-0----------------------------------------------|
E----------------------------------------------------|

e-------0--0----0-------0--0----0--------0--0----0-------0--0----0-|
B------------------------------------------------------------------|
G-----2--2---2--------2--2---2---------2--2---2--------2--2----2---|
D-------------------0--0-------------3--3------------0--0----------|
A---0--0-----------------------------------------------------------|
E------------------------------------------------------------------|

(just repeat the top tab in the intro througout the first verse until the next tabs show up.)

Say your sorry, that face of an angel
Comes out just when you need it to
As i pace back and forth all this time
Cause i honestly believed in you

e----------0--------------0------------------0----------|
B-------------------------------------------------------|
G---2-2-------2----2-2--------2-------2-2--------2--2---|
D---3-3------------0-0------------------------------0---|
A-------------------------------------0-0---------------|
E-------------------------------------------------------|
holding on, the days drag on stupid girl i should've known i should've known

                A                     Gm7
That im not a princess this aint a fairytale
           Dsus                          E
Im not the one you sweep off her feet, lead her up the stairwell
             A                 Gm7
This aint Hollywood this is a small town
         Dsus                        E
I was a dreamer before you went and let me down
         Gm7           E            Dsus                   A
Now it's too late for you and your white horse to come around

  A         Dsus
Maybe i was naive got lost in your eyes
 Gm7                    Dsus
I never really had a chance
      Gm7                   Dsus
I had so many dreams about you and me
         A               E
Happy endings but now i know

                 A                     Gm7
That im not a princess this aint a fairytale
           Dsus                          E
Im not the one you sweep off her feet, lead her up the stairwell
             A                 Gm7
This aint Hollywood this is a small town
         Dsus                        E
I was a dreamer before you went and let me down
         Gm7           E            Dsus
Gm7, Dsus, E
Now it's too late for you and your white horse to come around


 A             E      Dsus
And there you are on your knees
 A              E          Dsus
Begging for forgiveness, begging for me
 A            E           Dsus        E
Just like i always wanted but im so sorry

(Tab the chords until "well")
                     A                   Gm7
Cause im not your princess this aint a fairytale
               Dsus                       E
Im gunna find someone someday who might actually treat me well
           A                     Gm7
This is a big world that was a small town
              Dsus                 E
There in my rearview mirror disappearing now
        Gm7           E            Dsus
And its too late for you and your white horse
        Gm7           E           Dsus
Dsus
Now its too late for you and your white horse, to catch me now
    A                    Dsus     E        A
Oh woah-oh uh-oh woah-oh try and catch me now
      Dsus
Uh-oh
 Gm7         E              A
It's too late, to catch me now..
Related for White Horse tab