An Endless Sporadic - Eternal Bloom tab

-------------------------------------------------------------------------------
			     Eternal Bloom-  An Endless Sporadic
-------------------------------------------------------------------------------
Tabbed by: Simpaa
Email: simpa_dist@hotmail.com

Tuning: Doesn't really matter but all AES songs seem to be drop D

     1   2
e|-----4-----------0----0-----------4---------------0---0-----------------------|
B|-----0-----------3----5-----------0-------------3-----2-----------------------|
G|-----6-----------0----0-----------6-----------2-------2----------------o------|
D|-----7-----------2----4-----------7----------3--------0----------------o------|
A|--0--0-----------3----5-----0-0--0--------------------------------------------|
D|------------------------------------------------------------------------------|

Then there's the guitar solo beginning at 0:59, I don't know the chords behind it yet 
here's the solo. There's just that one part in the middle I haven't figured out yet  :geek:
0:59
e|-----------------------------------------------------------------------------|
B|-----------8-------------------------8---------------------------------------|
G|-------------10---9-7------------------10-9-7h9----9-7-6---------------------|
D|--7h9-10--------------10-9-7---7---------------------------------------------|
A|-----------------------------------------------------------------------------|
D|-----------------------------------------------------------------------------|
1:08
e|-----------------------------------------------------------------------------|
B|-------------------8----------8----------------------------------------------|
G|------------7--10---9-7--------10-9-7-9---------7-9---7----------------------|
D|-------7-9--------------------------------------10---------10-7--------------|
A|---10------------------------------------------------------------------------|
D|-----------------------------------------------------------------------------|

*PART I DONT KNOW*

1:38
e|-----------------------------------------------------------------------------|
B|---------------------------------------------8-----10-12-10------------------|
G|--12h14--12-10-9-7-9-10-------------------9----------------------------------|
D|-----------------------------7-----7-9-10------------------------------------|
A|--------------------------------10-------------------------------------------|
D|-----------------------------------------------------------------------------|
1:48
e|-------------------12-10-------------------------------------------------------------|
B|-10-12---10-12---------10-12----10-----8----------8----------------------------------|
G|----------------------------------------9-7---9---999---10-9-7-7/9--10-9-7-----------|
D|-------------------------------------------------------------------------------------|
A|-------------------------------------------------------------------------------------|
D|-------------------------------------------------------------------------------------|

1:57
e|-----------------------------------------------------------------------------|
B|-----------------------------------------------------------------------------|
G|-----------------------------------------------------------------------------|
D|--/14---14-16-16-17--16-14/16--11---11-9-11-12-------------------------------|
A|-----------------------------------------------------------------------------|
D|-----------------------------------------------------------------------------|
Tap to rate this tab
 
# A B C D E F G H I J K L M N O P Q R S T U V W X Y Z