Song name
# A B C D E F G H I J K L M N O P Q R S T U V W X Y Z

Anadivine - Emily tab

-----------------------------------------------------------------------------
			     Emily - Anadivine
-----------------------------------------------------------------------------
Tabbed by:epiphoneplaya
Email:punkrel12
Tuning:e-a-d-g-b-e

| /  slide up
| \  slide down
| h  hammer-on
| p  pull-off
| ~  vibrato
| +  harmonic
| x  Mute note


intro
e|-----------|
B|-----------|
G|--1--------|
D|------4----|
A|--2---2----|
E|--2--------|

verse - guitar1
e|-----------------------------------|
b|-----------------------------------|
G|-----------------------------------|
D|-4/6-6-6-6-4/66666666-4/--9--------|
A|-2/4-4-4-4-2/44444444-2/7-79--4----|
E|------------------------5--7--2----|

guitar2
e|-------------|
B|-------------|
G|--2----------|
D|-----3-------|
A|-------3-2---|
E|-------------|

chorus - guitar1
e|---------------------------|--------------------------|
B|---------------------------|--------------------------|
G|---------------1-----------|-----------------1111-----|
D|--24-6---------3-4--------1|-----------------------4--|
A|--44-4-7--676--3-2-5-454--3|-5--7--9--7--7---3333--2--|
E|-------5--777------3-555--3|-3--5--7--5--3---3333-----|

guitar2
e|--------------|--7----|------7---------------|
B|--------------|5---5h7|----5---5h7-----------|
G|-4---6---8---5|-------|-------------1111-----|
D|--------------|-------|----------------------|
A|-2---4---6---3|-------|-5-----------3333--4--|
E|--------------|-------|-7-----------3333--2--|

bridge - guitar1
e|-9-9--7-7---54--9-7--54-7--444x0-444x0--|
B|--7-7--5-5--32--7-5--32-5--222x0-222x0--|
G|----------------------------------------|
D|----------------------------------------|
A|----------------------------------------|
E|----------------------------------------|

guitar2
e|----------------------------------------|-----------|
B|----------------------------------------|-----------|
G|----------------------------------------|--2--------|
D|----------------------------------------|----3------|
A|--7--5555--7-9-5555-7-5--5x9x7--5x9x7---|-----3-3---|
E|--5--3333--5-7-3333-5-7--3x7x5--3x7x5---|-----------|


outro - guitar2
e|-------------------------------|
B|-------------------------------|
G|-------------------------------|
D|-------------------------------|
A|--5/7----5/7xx5xx9xx7---44-----|
E|--3/5----3/5xx3xx7xx5---22-----|


ENJOY!
=============================================================================
Tap to rate this tab
 
# A B C D E F G H I J K L M N O P Q R S T U V W X Y Z