Song name
# A B C D E F G H I J K L M N O P Q R S T U V W X Y Z

Anal Cunt - I Wanna Grow Old With You tab

e:---------7-----------------------------------5-5-------------------------------------|
B:-------8---8-----------3-------------------6---6-6-----------1-----------------------|
G:-----7-------7-------2---2------2------------------7-------0---0--------0------------|
D:---9-----------9---4----------4---4-----7------------7---2-------2----2---2----------|
A:-0--------------------------5---------5-----------------------------3----------------|
E:-------------------------------------------------------------------------------------|

e:-----7-7-7---------------------------------5-5-5-------------------------------------|
B:-----8-8---8-----------3-------------------6-5---6-----------1-----------------------|
G:-----7-7-----7-------2---2------2----------7-7-----7-------0---0--------0------------|
D:---9-----------9---4----------4---4-----7------------7---2-------2----2---2----------|
A:-0--------------------------5---------5-----------------------------3----------------|
E:-------------------------------------------------------------------------------------|

verse
i wanna wake up with u every day of my life...
e:---------7-----------------------------------5-5-------------------------------------|
B:-------8---8-----------3-------------------6---6-6-----------1-----------------------|
G:-----7-------7-------2---2------2------------------7-------0---0--------0------------|
D:---9-----------9---4----------4---4-----7------------7---2-------2----2---2----------|
A:-0--------------------------5---------5-----------------------------3----------------|
E:-------------------------------------------------------------------------------------|

e:-----7-7-7---------------------------------5-5-5-------------------------------------|
B:-----8-8---8-----------3-------------------6-5---6-----------1-----------------------|
G:-----7-7-----7-------2---2------2----------7-7-----7-------0---0--------0------------|
D:---9-----------9---4----------4---4-----7------------7---2-------2----2---2----------|
A:-0--------------------------5---------5-----------------------------3----------------|
E:-------------------------------------------------------------------------------------|

oh baby you i wanna grow old with you...
e:-----------------------------------------------------------------|
B:------------------4-4-4-4-4-3----3-3---------------4-4-4-4-3-3---|
G:-4-4--------------3-3-3-3-3-3----3-3-3-3-3---------3-3-3-3-3-3---|
D:-5-5--5-5-5-3h5-5-5-5-5-5-3------3-3-3-3-3--3h5-5--5-5-5-5-3---5-|
A:-5-5--5-5-5-------------------5--1-1-1-1-1-----------------------|
E:-3-3--3-3-3------------------------------------------------------|

e:-----------------------------------------------------------------|
B:------------------4-4-4-4-4-3----3-3---------------4-4-4-4-3-3---|
G:-4-4--------------3-3-3-3-3-3----3-3-3-3-3---------3-3-3-3-3-3---|
D:-5-5--5-5-5-3h5-5-5-5-5-5-3------3-3-3-3-3--3h5-5--5-5-5-5-3---5-|
A:-5-5--5-5-5-------------------5--1-1-1-1-1-----------------------|
E:-3-3--3-3-3------------------------------------------------------|

e:---------7-----------------------------------5-5-------------------------------------|
B:-------8---8-----------3-------------------6---6-6-----------1-----------------------|
G:-----7-------7-------2---2------2------------------7-------0---0--------0------------|
D:---9-----------9---4----------4---4-----7------------7---2-------2----2---2----------|
A:-0--------------------------5---------5-----------------------------3----------------|
E:-------------------------------------------------------------------------------------|

e:-----7-7-7---------------------------------5-5-5-------------------------------------|
B:-----8-8---8-----------3-------------------6-5---6-----------1-----------------------|
G:-----7-7-----7-------2---2------2----------7-7-----7-------0---0--------0------------|
D:---9-----------9---4----------4---4-----7------------7---2-------2----2---2----------|
A:-0--------------------------5---------5-----------------------------3----------------|
E:-------------------------------------------------------------------------------------|

verse
when u said i?ll be by your side...
e:---------7-----------------------------------5-5-------------------------------------|
B:-------8---8-----------3-------------------6---6-6-----------1-----------------------|
G:-----7-------7-------2---2------2------------------7-------0---0--------0------------|
D:---9-----------9---4----------4---4-----7------------7---2-------2----2---2----------|
A:-0--------------------------5---------5-----------------------------3----------------|
E:-------------------------------------------------------------------------------------|

e:-----7-7-7---------------------------------5-5-5-------------------------------------|
B:-----8-8---8-----------3-------------------6-5---6-----------1-----------------------|
G:-----7-7-----7-------2---2------2----------7-7-----7-------0---0--------0------------|
D:---9-----------9---4----------4---4-----7------------7---2-------2----2---2----------|
A:-0--------------------------5---------5-----------------------------3----------------|
E:-------------------------------------------------------------------------------------|

oh baby you i wanna grow old with you...
e:-----------------------------------------------------------------|
B:------------------4-4-4-4-4-3----3-3---------------4-4-4-4-3-3---|
G:-4-4--------------3-3-3-3-3-3----3-3-3-3-3---------3-3-3-3-3-3---|
D:-5-5--5-5-5-3h5-5-5-5-5-5-3------3-3-3-3-3--3h5-5--5-5-5-5-3---5-|
A:-5-5--5-5-5-------------------5--1-1-1-1-1-----------------------|
E:-3-3--3-3-3------------------------------------------------------|

e:-----------------------------------------------------------------|
B:------------------4-4-4-4-4-3----3-3---------------4-4-4-4-3-3---|
G:-4-4--------------3-3-3-3-3-3----3-3-3-3-3---------3-3-3-3-3-3---|
D:-5-5--5-5-5-3h5-5-5-5-5-5-3------3-3-3-3-3--3h5-5--5-5-5-5-3---5-|
A:-5-5--5-5-5-------------------5--1-1-1-1-1-----------------------|
E:-3-3--3-3-3------------------------------------------------------|


oh baby you i wanna grow old with you...
e:-----------------------------------------------------------------|
B:------------------4-4-4-4-4-3----3-3---------------4-4-4-4-3-3---|
G:-4-4--------------3-3-3-3-3-3----3-3-3-3-3---------3-3-3-3-3-3---|
D:-5-5--5-5-5-3h5-5-5-5-5-5-3------3-3-3-3-3--3h5-5--5-5-5-5-3---5-|
A:-5-5--5-5-5-------------------5--1-1-1-1-1-----------------------|
E:-3-3--3-3-3------------------------------------------------------|

e:-----------------------------------------------------------------|
B:------------------4-4-4-4-4-3----3-3---------------4-4-4-4-3-3---|
G:-4-4--------------3-3-3-3-3-3----3-3-3-3-3---------3-3-3-3-3-3---|
D:-5-5--5-5-5-3h5-5-5-5-5-5-3------3-3-3-3-3--3h5-5--5-5-5-5-3---5-|
A:-5-5--5-5-5-------------------5--1-1-1-1-1-----------------------|
E:-3-3--3-3-3------------------------------------------------------|


Hope you like it..
Tap to rate this tab
 
# A B C D E F G H I J K L M N O P Q R S T U V W X Y Z