Anarbor - Contagious tab

Artist: Anarbor	
Song: Contagious
Album: The Words You Dont Swallow
Tabbed by: gustavoaraujo999@hotmail.com

**I know the palm muted parts are wrong but I couldnt fit anything better in there.

[Intro]
e|------------------------------------------|
B|-777--------------------------------------|
G|-888-xx-xx-866-xx-xx-44444----------------|
D|-888-xx-xx-866-xx-xx-44444--------4-3-----| [x2]
A|-666-xx-xx-644-xx-xx-22222------------5~--|
E|----------------------------4-6-7---------|

[Verse 1]
e|------------------------------------------------------------------|
B|------------------------------------------------------------------|
G|--------------------------------------------------6--5--4--3------|
D|--------------------------------------------------x--x--x--x------|
A|--------------------------------------------------4--3--2--1------|
E|------------------------------------------------------------------|

e|-------------------------|----------------------------------------|
B|-------------------------|----------------------------------------|
G|-------------------------|------------------------6--5--4--3------|
D|-------------------------|------------------------x--x--x--x------|
A|---------------3-2-0-----|---------------3-2-0----4--3--2--1------|
E|-0--0-2--0-2-3-------3-0-|-0--0-2--0-2-3-------3------------------|

[Pre-chorus]
e|----------------------------------------------------------------|
B|----------------------------------------------------------------|
G|------4444-8888-6666--------------------------------------------|
D|-6666-4444-8888-6666--6666-8888---------------------------------|
A|-6666-2222-6666-4444--6666-8888---------------------------------|
E|-4444-----------------4444-6666---------------------------------|

[Chorus]
e|-----------------------------------------|
B|-777-------------------------------------|
G|-888-xx-xx-x66-xx-xx-44444---------------|
D|-888-xx-xx-x66-xx-xx-44444--------4-3----| [x2]
A|-666-xx-xx-x44-xx-xx-22222------------5~-|
E|----------------------------4-6-7--------|

e|-----------------------------------------|
B|-7777777---------------------------------|
G|-8888888-6666666-4444444-----------------|
D|-8888888-6666666-4444444----------4-3----|
A|-6666666-4444444-2222222--------------5~-|
E|----------------------------4-6-7--------|

e|-----------------------------------------|
B|-----------------------------------------|
G|----------------444444--3-3-3------------|
D|-6666666666666--444444--3-3-3------------|
A|-6666666666666--222222--1-1-1------------|
E|-4444444444444---------------------------|
 
[Post-chorus]
e|-------------------|----------------------------------------|
B|-------------------|----------------------------------------|
G|-------------------|----------------------------------------|
D|-------------------|----------------------------------------|
A|---------3-2-0-----|----------------------------------------|
E|---0-2-3-------3-0-|----------------------------------------|

[Verse 2]
e|-------------------------|----------------------------------------|
B|-------------------------|----------------------------------------|
G|-------------------------|------------------------6--5--4--3------|
D|-------------------------|------------------------x--x--x--x------| [x2]
A|---------------3-2-0-----|---------------3-2-0----4--3--2--1------|
E|-0--0-2--0-2-3-------3-0-|-0--0-2--0-2-3-------3------------------|

[Pre-chorus]
e|----------------------------------------------------------------|
B|----------------------------------------------------------------|
G|------4444-8888-6666--------------------------------------------|
D|-6666-4444-8888-6666--6666-8888---------------------------------|
A|-6666-2222-6666-4444--6666-8888---------------------------------|
E|-4444-----------------4444-6666---------------------------------|

[Chorus]
e|-----------------------------------------|
B|-777-------------------------------------|
G|-888-xx-xx-x66-xx-xx-44444---------------|
D|-888-xx-xx-x66-xx-xx-44444--------4-3----| [x2]
A|-666-xx-xx-x44-xx-xx-22222------------5~-|
E|----------------------------4-6-7--------|

e|-----------------------------------------|
B|-77777777--------------------------------|
G|-88888888-66666666-4444444---------------|
D|-88888888-66666666-4444444--------4-3----|
A|-66666666-44444444-2222222------------5~-|
E|----------------------------4-6-7--------|

e|-----------------------------------------|
B|-----------------------------------------|
G|--------------------444444--3-3-3--------|
D|-66666666666666666--444444--3-3-3--------|
A|-66666666666666666--222222--1-1-1--------|
E|-44444444444444444-----------------------|

[Solo]
e|------------------------------------------------------------------|
B|----7--------7--------7---7--10^-9-7-9-7--------------------------|
G|-6-8--8---6-8--8---6-8--8-----------------------------------------|
D|------------------------------------------------------------------|
A|------------------------------------------------------------------|
E|------------------------------------------------------------------|

e|-------14-----------14------------14----14------------------------|
B|-14-16----16---14-16---16---14-16----16---------------------------|
G|--------------------------------------------6^--8^--9^--11^-------|
D|------------------------------------------------------------------|
A|------------------------------------------------------------------|
E|------------------------------------------------------------------|

[Bridge]
e|------------------------------------------------------------------|
B|------------------------------------------------------------------|
G|---------444444-888888-666666------------444444-888888-666666-----|
D|--666666-444444-888888-666666----666666--444444-888888-666666-----|
A|--666666-222222-666666-444444----666666--222222-666666-444444-----|
E|--444444-------------------------444444---------------------------|

e|------------------------------------------------------------------|
B|------------------------------------------------------------------|
G|------------------------------------------------------------------|
D|-666666--8~-------------------------------------------------------|
A|-666666--8~-------------------------------------------------------|
E|-444444--6~-------------------------------------------------------|

[Chorus]
e|-----------------------------------------|
B|-777-------------------------------------|
G|-888-----------------44444---------------|
D|-888-----------------44444--------4-3----| [x2]
A|-666-----------------22222------------5~-|
E|----------------------------4-6-7--------|

e|-----------------------------------------|
B|-7777777---------------------------------|
G|-8888888-6666666-4444444-----------------|
D|-8888888-6666666-4444444----------4-3----|
A|-6666666-4444444-2222222--------------5~-|
E|----------------------------4-6-7--------|

e|-----------------------------------------|
B|-----------------------------------------|
G|--------------------444444--3-3-3--------|
D|-66666666666666666--444444--3-3-3--------| [x2]
A|-66666666666666666--222222--1-1-1--------|
E|-44444444444444444-----------------------|


[Outro]
e|-----------------------------------------|
B|-777-------------------------------------|
G|-888-xx-xx-x66-xx-xx-44444---------------|
D|-888-xx-xx-x66-xx-xx-44444--------4-3----| [x2]
A|-666-xx-xx-x44-xx-xx-22222------------5~-|
E|----------------------------4-6-7--------|
Tap to rate this tab
 
# A B C D E F G H I J K L M N O P Q R S T U V W X Y Z