Song name
# A B C D E F G H I J K L M N O P Q R S T U V W X Y Z

Anathema - Are You There tab

are you there ?

by Anathema
from the fabulous new album 'a natural disaster '


transcribed by Christian Reindel(creindel@gmx.de)
any questions or corrections- e-mail me

Copyright (c)  (Music For Nations) (2003)
Version 2.0 - (13.05.04)

a very beautiful song !!!


mainchords - play the whole song - use a flanger or other spaceeffects
for your guitar to imitate the keyboards

   D        F       Bb       D       A       Bb
E---------------------------------------------------------------|
B---------------------------------------------------------------|
G--7--------10---------------7----------------------------------|
D-------------------8----------------7--------8-----------------|
A---------------------------------------------------------------|
E---------------------------------------------------------------|


guitarsolo


part 1  -   3 times

E--6--6-6--5--5-5--3--3-3--1-1--------6--6-6--5--5-5--3--3-3--1-1----|
B--------------------------------------------------------------------|
G--------------------------------------------------------------------|
D--------------------------------------------------------------------|
A--------------------------------------------------------------------|
E--------------------------------------------------------------------|

                       end part 1

E---8--8-8--6--5-5--3--1-3-5--1--|
B--------------------------------|
G--------------------------------|
D--------------------------------|
A--------------------------------|
E--------------------------------|


part 2  -  1 time

E--6--6-6--5--5-5--8--8-8--5--5-5----6--6-6--5--5-5---8--8-8--5--5-5---|
B----------------------------------------------------------------------|
G----------------------------------------------------------------------|
D----------------------------------------------------------------------|
A----------------------------------------------------------------------|
E----------------------------------------------------------------------|


                       end part 2

E---6--6-6--8--5-5--3--1-3-5--1--|
B--------------------------------|
G--------------------------------|
D--------------------------------|
A--------------------------------|
E--------------------------------|

end.
Tap to rate this tab
# A B C D E F G H I J K L M N O P Q R S T U V W X Y Z