Song name
# A B C D E F G H I J K L M N O P Q R S T U V W X Y Z

Anberlin - True Faith tab

-------------------------------------------------------------------------------
			     TRUE FAITH (New Order cover) - Anberlin
-------------------------------------------------------------------------------
Tabbed by: Spik3balloon

Tuning: Drop D (DADGBe)

There are only 3 guitar parts in the intro. For the rest of the song, 2 guitars should be enough.
This is my first tab, so apologies for any dodgy transcription/errors.

Intro (0:08-0:24)
e|------------------------------| - guitar 1
B|------------------------------|
G|--15-----13-----13-----13-----|
D|--13-x8--13-x8--15-x8--13-x8--|
A|------------------------------|    (listen for
D|------------------------------| x2  strumming pattern)

(0:16)
e|------------------------------| - guitar 2 (rhythm)
B|------------------------------|
G|----------------6-----4-------|
D|----1-----4-----6-----4-------|
A|----1-----4-----4-x8--2-x8----|
D|----1-x8--4-x8----------------| 

e|----------------------------------------------| - guitar 3
B|----------------------------------------------|
G|----------------------------------------------|
D|----------------------------------------------|
A|---------------16-----------------------------|
D|--13--13-15-16-------15--16-15-16--11s13------| 

Verse 1 - backing piano riff, muted (0:25-0:39)

e|----------------------------------------| - guitar 3
B|----------------------------------------|
G|----------------------------------------|
D|--13-x16--------------------------------|
A|----------14-x8--16-x8--13-x16--16-x16--|
D|----------------------------------------| x2

Verse 1 - guitar (0:40)

e|-------------------| - guitar 1
B|-------------------|
G|--15---------------|
D|-----13-15-16------|
A|-------------------|
D|-------------------| x4

(0:48)
e|------------------------------------| - guitar 1
B|--12-----11-----11------------------|
G|--13-x8--11-x8--10-x16--------------|
D|------------------------------------|
A|------------------------------------|
D|------------------------------------|


Chorus (0:57)

e|------------------------------| - guitar 2 (rhythm)
B|------------------------------|
G|----------------6-------------|
D|----1-----4-----6-----6-------|
A|----1-----4-----4-x8--6-------|
D|----1-x8--4-x8--------6-x8----| x2

e|------------------------------|
B|------------------------------|
G|----------------6------4------|
D|----1-----4-----6------4------|
A|----1-----4-----4--x8--2-x16--|
D|----1-x8--4-x8----------------|  



Interlude riff (1:23-1:27) x2
e|----------------------------------| - guitar 1
B|----------------------------------|
G|------------15-----------15-------|
D|-----131313----13-151513----1313--|
A|----------------------------------|   (listen for
D|----------------------------------|   picking pattern)

Verse 2 - backing guitar riff (1:27)
e|------------------------------------------------------------------| - guitar 3
B|------------------------------------------------------------------|
G|------------------------------------------------------------------|
D|------------------------------------------------------------------|
A|--6-x16----------------------6-x16--------------------------------|
D|---------9-x8--11-x8--8-x32---------9-x8--11-x8--8-x16--11-x16----|

(1:44)
e|------------------------------------------------------------------| - guitar 3
B|------------------------------------------------------------------|
G|------------------------------------------------------------------|
D|-------------------------------------------------------------x----|
A|--6-x16------------------------------------------------------x----|
D|---------11-x16--9-x16--8-x16---11-x16--9-x16--8-x24--12-x2--x-x6-|

e|-------------------| - guitar 1
B|-------------------|
G|--15---------------|
D|-----13-15-16------|
A|-------------------|
D|-------------------| x4

(1:52)
e|------------------------------------| - guitar 1
B|--12-----11-----11------11--x-------|
G|--13-x8--11-x8--10-x12--11--x-------|
D|----------------------------x-x6----|
A|------------------------------------|
D|------------------------------------|

Chorus (2:00)

Interlude riff (2:27-2:47) x10

Bass Breakdown (2:47-3:02)

Fade-in riff (3:03)
e|-------| - guitar 2 (rhythm)
B|-------|
G|---4---|
D|---4---|
A|---2---|
D|-------| 

Chorus (3:04)

Interlude riff (3:30-3:39) x4
Tap to rate this tab
 
# A B C D E F G H I J K L M N O P Q R S T U V W X Y Z