Guitaretab - guitar tabs
Song name
# A B C D E F G H I J K L M N O P Q R S T U V W X Y Z

Anberlin - Mother tab

this is my first tab so help me out
Artist:Anberlin
Song: Mother

this song wasnt written by anberlin but they did an amazing cover of it
Standard Tuning:E-a-d-g-b-e
Capo: 3rd Fret
[ Tab from: http://www.guitaretab.com/a/anberlin/221585.html ]
e|------------------------------|
B|------------------------------|
G|-----4--------0------2--------|
D|---4---------------2----------|   keep playing this through
A|-2---------2-----0------------|
E|---------3--------------------|

you'll hear a second guitar come in during the third verse

e|-------------------------------|
B|-------------------------------|
G|-------------------------------|
D|----4/5--4-2-5-----------------|
A|-------------------------------|
E|-------------------------------|

and thats it, its a very simple song but if you are a talented vocalist you'll be able 
pull it off very well.
Related for Mother tab
Mother chords by Anberlin