Song name
# A B C D E F G H I J K L M N O P Q R S T U V W X Y Z

And So I Watch You From Afar - A Little Bit Of Solidarity Goes A Long Way tab

Artist : ...And So I Watch You from Afar
Album: And So I Watch You from Afar
Song: A Little Bit of Solidarity Goes a Long Way

This is my first proper tab, so enjoy


Tuning: e,b,g,d,a,D

Intro
Guitar 1 (0:00)
e--------------------------------------------------|
b--------------------------------------------------|
g----------------10h12p10--------------------------| X4
d-8-0-12-0-8-12-----------12-0-13-12---------------|
a--------------------------------------------------|
D--------------------------------------------------|

Guitar2 (0:04)
After Guitar 1 plays above riff twice
e---------------------------15-13---|
b----15----15-13h15p13--------------|
g-12----12--------------15----------| X2
d-----------------------------------|
a-----------------------------------|
E-----------------------------------|

Bit where power chords come in

Guitar 1 (0:09)
e--------------------------------------------------|
b--------------------------------------------------|
g----------------10h12p10--------------------------| X8
d-8-0-12-0-8-12-----------12-0-13-12---------------|
a--------------------------------------------------|
D--------------------------------------------------|

Guitar 2 (0:09)
e------------------------------------  \
b------------------------------------   \
g------------------------------------    \
d-10-------------------------10-----      \
a-10-------------------------10-----       \
D-10-------------------------10-----        \
                                             \
e------------------------------------        /  X2
b------------------------------------       /
g------------------------------------      /
d-8--------------------------3-------     /
a-8--------------------------3-------    /
D-8--------------------------3-------   /

Guitar 1 (0:28)
e-------------------------------------------------
b-------------------------------------------------
g----------------10h12p10------------------------ X8
d-8-0-12-0-8-12-----------12-0-13-12-------------
a-------------------------------------------------
D-------------------------------------------------

Guitar 2 (0:28)
e----------------------------------                  \ 
b----------------------------------                   \
g-------8-8----8-------8-8-----8--                     \
d----------------------------------                     \ 
a----------------------------------                      \
D-10-10-----10---10-10-----10----                         \
                                                           \
                                                            \
e---------------------------                                 \
b---------------------------                                  \
g-----7-7---7------2-2---2--                                  /   X2
d---------------------------                                 /
a---------------------------                                /
D-8-8-----8----3-3-----3----                                /
                                                          /
e---------------------------------------------------     /
b---------------------------------------------------    /
g-----7-7---7-----7-7---7-----0-0---0-----0-0---0---   /
d---------------------------------------------------  /
a--------------------------------------------------- /
D-8-8-----8---8-8-----8---1-1-----1---1-1-----1-----/


Guitar 1 (0:47)
e-------------------------------------------------|
b-------------------------------------------------|
g----------------10h12p10------------------------ X3
d-8-0-12-0-8-12-----------12-0-13-12--------------|
a-------------------------------------------------|
D-------------------------------------------------|

Guitar 2 (0:47)
e----------------------------------------------|
b----------------------------------------------|
g----------------------------------------------|
d-1------------------------------------------1-|
a-1------------------------------------------1-|
D-1------------------------------------------1-|

e-------------------------|
b-------------------------|
g-------------------------|
d-8-----------------------|
a-8-----------------------|
D-8-----------------------|

Guitar 1 (0:54)
e-------------------------------------|
b-----------10------------------------|
g-10-10-12----------------------------|
d----------------10-12-----10-12-13---|
a-------------------------------------|
D-------------------------------------|

Guitar 2 (0:54)
e----------------------|
b----------------------|
g----------------------|
d-3-3-3---3-3---3-3-3--|
a-3-3-3---3-3---3-3-3--|
D-3-3-3---3-3---3-3-3--|



Guitar 1 (0:57)
e-------------------------------------------------|
b-------------------------------------------------|
g----------------10h12p10------------------------ X4
d-8-0-12-0-8-12-----------12-0-13-12--------------|
a-------------------------------------------------|
D-------------------------------------------------|

Guitar 2 (0:57)
e-------------------------------------------------|
b-------------------------------------------------|
g-------------------------------------------------|
d-1-----------------------------------1-----------|
a-1-----------------------------------1-----------|
D-1-----------------------------------1-----------|

e-------------------------------------------------|
b-------------------------------------------------|
g-------------------------------------------------|
d-8-----------------------------------------------|
a-8-----------(pm)3-3-3-3-3-3--3-3-3-3--3-3-3-----|
D-8-----------(pm)3-3-3-3-3-3--3-3-3-3--3-3-3-----|


Guitar 1 (1:07)
e-------------------------------------------------|
b-------------------------------------------------|
g----------------10h12p10------------------------ X8
d-8-0-12-0-8-12-----------12-0-13-12--------------|
a-------------------------------------------------|
D-------------------------------------------------|

Guitar 2 (1:07)
e----------------------------------                      \
b----------------------------------                       \
g-------8-8----8-------8-8-----8--                         \
d----------------------------------                         \ 
a----------------------------------                          \
D-10-10-----10---10-10-----10----                             \
                                                               \
e---------------------------                                    \
b---------------------------                                     \
g-----7-7---7------2-2---2-                                      /   X2
d---------------------------                                    /
a---------------------------                                   /
D-8-8-----8----3-3-----3---                                   /
                                                             /
e---------------------------------------------------        /
b---------------------------------------------------       /
g-----7-7---7-----7-7---7-----0-0---0-----0-0---0---      /
d---------------------------------------------------     /
a---------------------------------------------------    /
D-8-8-----8---8-8-----8---1-1-----1---1-1-----1-----   /

Guitar 1 (1:26)
e--------------------------------------------------|
b--------------------------------------------------|
g----------------10h12p10--------------------------| X8
d-8-0-12-0-8-12-----------12-0-13-12---------------|
a--------------------------------------------------|
D--------------------------------------------------|

Guitar 2 (1:26)
e------------------------------------15-13---|
b-------15-15----15-12h15p13-----------------|
g-12-12-------12--------------15-15----------| X7
d--------------------------------------------|
a--------------------------------------------|
D--------------------------------------------|

On 8th time Guitar 2 plays
e-15------------18-------------|
b------------------------------|
g------------------------------| X1
d------------------------------|
a------------------------------|
D------------------------------|

Intro
Guitar 1 (1:45)
e--------------------------------------------------|
b--------------------------------------------------|
g----------------10h12p10--------------------------| X3
d-8-0-12-0-8-12-----------12-0-13-12---------------|
a--------------------------------------------------|
D--------------------------------------------------|

on 4th time play
e-----------------------------------------|
b----------------10h12p12-----------------|
g-8-0-12-0-8-12-----------12-13-12-10-----| X 1
d-----------------------------------------|
a-----------------------------------------|
D-----------------------------------------|

Guitar2 (1:45)
e---------------------------15-13--|
b----15----15-13h15p13-------------|
g-12----12--------------15---------| X3
d----------------------------------|
a----------------------------------|
E----------------------------------|

on 4th time play
e---------------------------15-13h15p13------|
b----------------------------------------15--|
g----15----15-13h15p13-----------------------|
d-12----12--------------15-------------------| X1
a--------------------------------------------|
D--------------------------------------------|

Guitar 1 (1:54)
e----------------------------|
b----------------------------|
g-10h12p10-------------- X52-|
d-----------12-13-12-10------|
a----------------------------|
D----------------------------|

Guitar 2 (1:54) I think this bit has some sort of delay
e--------------15-13h15p13----------|
b-13h15p13-----------------15-------|
g-----------15----------------  X17-|
d-----------------------------------|
a-----------------------------------|
D-----------------------------------|

Guitar 2 (2:21)
e-15-15-15-15-15-15-18-18-18-18-18-18-|
b-------------------------------------|
g-------------------------------------| X1
d-------------------------------------|
a-------------------------------------|
D-------------------------------------|

Guitar 2 (2:24) Not too sure about this part
e-13-13-13-11-11-11-13-13-13-11-11-11--6-6-6-8-8-8-6-6-6-5-5-5------|
b-------------------------------------------------------------------|
g-------------------------------------------------------------------|
d-------------------------------------------------------------------|
a-------------------------------------------------------------------|
D-------------------------------------------------------------------|

e-13-13-13-11-11-11-6-6-6-8-8-8-6-6-6-6-6-6-8-8-8-8-8-8-----|
b-----------------------------------------------------------|
g-----------------------------------------------------------|
d-----------------------------------------------------------|
a-----------------------------------------------------------|
D-----------------------------------------------------------|

e-13-13-13-11-11-11-6-6-6-8-8-8-6-6-6-5-5-5-6-6-6-3-3-3-----|
b-----------------------------------------------------------|
g-----------------------------------------------------------|
d-----------------------------------------------------------|
a-----------------------------------------------------------|
D-----------------------------------------------------------|

e-13-13-13-11-11-11-6-6-6-8-8-8-6-6-6-6-6-6-8-8-8-8-8-8-----|
b-----------------------------------------------------------|
g-----------------------------------------------------------|
d-----------------------------------------------------------|
a-----------------------------------------------------------|
D-----------------------------------------------------------|

Guitar 2 (2:50)
e--------------15-13----------|
b-13h15p13----------15--------|
g-----------15----------------|  X14
d-----------------------------|
a-----------------------------|
D-----------------------------|

Gutar 2 (3:12)
e-------------------------------------|
b-15-----------------15(b)16(r)15-----|
g-------------------------------------|
d-------------------------------------|
a-------------------------------------|
D-------------------------------------|

Guitar 1 (3.16)
e-------------------------------------------------|
b-------------------------------------------------|
g----------------10h12p10-------------------------| X4
d-8-0-12-0-8-12-----------12-0-13-12--------------|
a-------------------------------------------------|
D-------------------------------------------------|

Guitar 2 (3:16)
e---------------------------15-13--|
b----15----15-13h15p13-------------|
g-12----12--------------15---------| X4
d----------------------------------|
a----------------------------------|
E----------------------------------|
Tap to rate this tab
# A B C D E F G H I J K L M N O P Q R S T U V W X Y Z