Song name
# A B C D E F G H I J K L M N O P Q R S T U V W X Y Z

And Then I Turned Seven - In Loving Memory Acoustic tab

Tuning:EADGBe

really  the song is played in eacacc tuning but i think this works!
  (x2)                           
e|--------XXX--------------XXX-------|
B|--------XXX--------------XXX-------|
G|--55555-XXX-55555--55555-XXX-44444-|
D|--55555-XXX-XXXXX--77777-XXX-33333-|
A|--33333-XXX-55555--77777-XXX-33333-|
E|--------XXX-33333--55555-XXX-11111-|

   "You said yourself..."
e|--------------------------------------|
B|--------------------------------------|
G|--55555555-55555555-55555555-44444444-|
D|--55555555-XXXXXXXX-77777777-33333333-|
A|--33333333-55555555-77777777-33333333-|
E|-----------33333333-55555555-11111111-|

  "and now everything..." and Chorus
e|--------------------------------------|
B|--------------------------------------|
G|--5-555555-5-555555-5-555555-4-444444-|x2 for verse
D|--5-555555-X-XXXXXX-7-777777-3-333333-|x4 for chorus
A|--3-333333-5-555555-7-777777-3-333333-|
E|-----------3-333333-5-555555-1-111111-|

 
Interlude:
  Guitar 1
e|-------------------------|
B|-------------------------|
G|--5~---5~---5~---5~--55--|
D|--5~---5~---5~---5~--55--| x5
A|--3~---3~---3~---3~--33--|
E|-------------------------|

After guitar one plays that once, guitar two comes in with this:
e|-----------------------------------|
B|-----------------------------------|
G|--5-5-5-5-7-7-7-7-5-5-5-5-4-4-4-4--|
D|---5-5-5-5-5-5-5-5-5-5-5-5-5-5-5-5-| x4
A|-----------------------------------|
E|-----------------------------------|

  Chorus x4
  Intro x4
  End
Tap to rate this tab
 
# A B C D E F G H I J K L M N O P Q R S T U V W X Y Z