Song name
# A B C D E F G H I J K L M N O P Q R S T U V W X Y Z

Anders Matthesen - Jul Paa Vesterbro tab

Title: Jul på Vesterbro
By: Anders "Anden" Matthesen
Tabber: Sune Alkærsig (sune@alkaersig.net)

   Dm          F         G         Dm
E |-----1p0---|-------1-|-----3---|-------1p0---|
H |---------3-|---------|-------3-|-----------3-|
G |---2-------|---0h2---|---0-----|---0h2-------|
D |-0---------|-3-------|-0-------|-0-----------|
A |-----------|---------|---------|-------------|
E |-----------|---------|---------|-------------|

Takt stregerne er sat for at vise akkord skift! :)

Den sidste takt kan også spilles som den første og nogen gange slutter den sådan her:


  Dm
E |-------1-|
H |---------|
G |---0h2---|
D |-0-------|
A |---------|
E |---------|¨

Den kører det samme hele sangen i gennem
Tap to rate this tab
 
# A B C D E F G H I J K L M N O P Q R S T U V W X Y Z