Song name
# A B C D E F G H I J K L M N O P Q R S T U V W X Y Z

Andreas Wallin - For You tab

-------------------------------------------------------------------------------
			     For you - Andreas Wallin
-------------------------------------------------------------------------------
Tabbed by: Addewallin96
Email: Gullernu@hotmail.com

Tuning: eBGDAE
Capo 5
e|---------------------------------------------3-----------------------------|
B|---------------1----------------------1------------------1----0h-1p-0h-----|
G|--------0---------0-----0-----0----------0----------2-------------------2--|
D|-----------2---------2-----------0--------------------2--------------------|
A|----3----------------------2--------------------0--------------------------|
E|---------------------------------------------------------------------------|

e|-----3-------|
B|-----3-------|
G|-----0-------|
D|-----0-------|
A|-----2-------|
E|-----3-------|     x2


Chords used:       C   |032010|
This one i call Am/B   |020010|
                  Am   |002210|
                   G   |320033|
                   F   |133211|

Verse chords is played P.M. Wich means palm mute.
Chorus chords is played normal.

                      Lyrics
  C         Am/B       Am           G
I'm sitting here and got nothing to do. 
  C         Am/B   Am              G
Wasting my time, looking at the moon.
  C              Am/B            Am                  G
It is dark and cold outside, And I got no place to hide.
  C               Am/B            Am             G
I can see you waving your hand, from the other side.


F               G                C    Am/B     Am
I can see you waving your hand. From the other side.
F               G                C            G
I can see you waving your hand to me


 C                 Am/B          Am                 G
When the moon is going down, The sun will shine on you.
 C        Am/B            Am     G
So I can see your lovely face, ooh

 F               G             C             Am/B     Am 
The sun will shine on you, So i can see your lovely face.
F              G             C          |C  Am/B Am  G| --> played fast
Then I will see your lovely face.       ***************


F               G                C       Am/B   Am
I can see you waving your hand. From the other side.
F               G                C      |C  Am/B Am  G| --> played fast
I can see you waving your hand to me    ***************

F                G              C             Am/B  Am
The sun will shine on you, So i can see your lovely face.
F              G              C     P.M.|C  Am/B Am  G| --> played fast
Then I will see your lovely face.       ***************

The last chorus chord is picking, you just pick
the way you like :)

F              G                 C       Am/B    Am
I can see you waving your hand. From the other side.
F               G          C
I can see you smiling to me.


Enjoy! :D



Tap to rate this tab
# A B C D E F G H I J K L M N O P Q R S T U V W X Y Z