Andrew Peterson - In The Night tab

standard tuning
e-mail: Danthekarateman2@comcast.net

Intro:
   Bm
e|----------------------|
B|----3----3----3----3--|
G|---4-4--4-4--4-4--4-4-|
D|--4----4----4----4----|
A|-2----2----2----2-----|
E|----------------------|

Verse:
Play the same pick patter with theses chords:

Bm                                  A
I am weary with the pain of jacob's wrestling
        G                                           A
In the darkness with the fear the darkness with the fear
Bm                                    A
But he met the morning wounded with a blessing
          G        A          Bm
So in the night my hope lives on

Verse 2: same chords
Chorus
Verse 3
Verse 4
Chorus

Here is where the solo is:

e|-------------------5h7------------------------------------------------|
B|---------------7-5-----7----------------------------------------------|
G|---2h4-6/7-7-4-----------4-4-6-7-7\6\4\2------------------------------|
D|-4--------------------------------------4-----------------------------|
A|----------------------------------------------------------------------|
E|----------------------------------------------------------------------|

Verse 5
Verse 6

This one is harder to play. This is the main tune.
e|--------5-----------------------------5-7/9-7-5-----------------------|
B|-7-7b-7---5-7-5----3--3---------7p5-------------7---------------------|
G|-----------------4--4---2-----2-----7-------------4/6-7-4-2-4---------|
D|--------------------------2-4-----------------------------------------|
A|----------------------------------------------------------------------|
E|----------------------------------------------------------------------|

Verse 7

On the violin
e|-------------------5h7---10-9-7-5---------------------------------15-|
B|---------------7-5-----7----------7-5--------5h7-5-5h7p5-5-5-7-5-----|
G|---2h4-6/7-7-4------------------------7-6-4--------------------------|
D|-4-------------------------------------------------------------------|
A|---------------------------------------------------------------------|
E|---------------------------------------------------------------------|

e|-14-12-10-9-9-9h10p9-7--|
B|------------------------|
G|------------------------|
D|------------------------|
A|------------------------|
E|------------------------|
Tap to rate this tab
 
# A B C D E F G H I J K L M N O P Q R S T U V W X Y Z