Song name
# A B C D E F G H I J K L M N O P Q R S T U V W X Y Z

Andrew W K - Party Hard tab

-------------------------------------------------------------------------------
			     Party Hard - Andrew W.K.
-------------------------------------------------------------------------------
Tabbed by: Aaron
Email: sykotic01@hotmail.com

Tuning: Standard (EADGBe)

NOTE: i did not tab the strumming patterns for any of the riffs, let your ears
do the work on that, i did this tab cause i tried the other ones on the site
and they were not very good i'm 98% sure about this tab

INTRO: Both Guitars repeat (over and over)

e|--------------|    
B|--------------|    
G|--------------|    
D|--------------|     
A|---7----------|     
E|---0----------|     

Pre-verse: Guitar 1

e|-------------------------------------------------|
B|-------------------------------------------------|
G|----------------88-9-9--------------11-11-13-9--9| This is the coolest 
D|---6-2-7-2-9-2----------6-2-7-2-9-2--------------| looking way to play
A|-------------------------------------------------| this riff!
E|-------------------------------------------------|

Pre-verse: Guitar 2

e|-------------------------------------------------|
B|-------------------------------------------------|
G|-----------------88-9-9-------------11-11-13-9---|
D|-----------------66-7-7--------------9--9-11-7---|
A|---7---------------------7-----------------------|
E|---0---------------------0-----------------------|

e|---14---------|    
B|--------------|    This is the piano chord that 
G|---9----------|    gets repeated before the verse
D|--------------|     
A|--------------|     
E|--------------|

Verse: Both Guitars 

e|---------------------------|
B|---------------------------|
G|------2----------6--4\8-9--|
D|---2--2--7--6\4--6--4\8-9--|
A|---2--4--7--6\4--4--2\6-7--|
E|---0-----5--4\2------------|

Pre-Chours: Both Guitars

e|---------------------------------------------------------|
B|---------------------------------------------------------|
G|---------------------------------------------------------|
D|---------------------------------------------------------|
A|---------------------------------------------------------|
E|---12-0-12-10-0-10-8-0-8-0-0---10-0-10-8-0-8-7-0-12-0-0--|

e|---------------------------------------------------------|
B|---------------------------------------------------------|
G|------------------------------8--9-----------------------|
D|---------------------------9--8--9-----------------------|
A|---------------------------9--6--7-----------------------|
E|---8-0-8-7-0-7-5-0-5-0-0---7-----------------------------|

Chorus: Both Guitars

e|---------------------------------------------------|
B|---------------------------------------------------|
G|--------------------7-----------------------4------|
D|---2--7-6/7---2--7--7--7---2--7-6/7---2--4--4--9---|
A|---2--7-6/7---2--7--5--7---2--7-6/7---2--4--2--7---|
E|---0--5-4/5---0--5-----5---0--5-4/5---0--2-----0---|

Bridge: Both Guitars (looks a lot like the chorus differ strumming pattern)

e|------------------------------------------------|
B|------------------------------------------------|
G|------------------------------------------9-----|
D|---2---7-6/7---2---7-6/7---2---7-6/7---9--9-----|
A|---2---7-6/7---2---7-6/7---2---7-6/7---9--7-----|
E|---0---5-4/5---0---5-4/5---0---5-4/5---7--------|

e|------------------------------------------------|
B|------------------------------------------------|
G|------------------------------------------4-----|
D|---2---7-6/7---2---7-6/7---2---7-6/7---4--4--7--|
A|---2---7-6/7---2---7-6/7---2---7-6/7---4--2--9--|
E|---0---5-4-5---0---5-4-5---0---5-4-5---2-----0--|

e|--------------|    
B|--------------|    
G|--------------|    
D|--------------|     
A|---7----------|     
E|---0----------|

Thats the riffs just put them in order and enjoy, This is a
really fun song to play, when you get all the subtle 
variations they use with their power chords.

************************************

| /   slide up
| \   slide down
| h   hammer-on
| p   pull-off
| ~   vibrato
| +   harmonic
| x   Mute note
| b   Bend
| pb  Pre-bend
| br  Bend release
| pbr Pre-bend release
| brb Bend release bend

************************************
Tap to rate this tab
# A B C D E F G H I J K L M N O P Q R S T U V W X Y Z