Guitaretab - guitar tabs
Song name
# A B C D E F G H I J K L M N O P Q R S T U V W X Y Z

Androids - Whole Lotta Love tab

The Androids - Whole Lotta Love


Iíve been waiting for a finished tab of this song for ages but none came in so I tried 
it myself. The last part of the solo definitely isnít exactly right and I can only work 
part of the second solo bit because I think most of it's played on bass, but the rest of it, I reckon sounds
pretty good.
Itís in the key of C and uses the D minor Pentatonic scale.

Intro/Verse
   D            F         C
E|---------------------------------------------------|
B|---------------------------------------------------|
G|---------------------------------------------------|x10
D|---------------------------------------------------|
A|-12-12-12-12--15-15-15--10-10-10-10-10-10-10-10-10-|
E|-10-10-10-10--13-13-13---8--8--8--8--8--8--8--8--8-|
   P.M . . . . . . . . . . . . . . . . . . . . . . .

Guitar 2 lead fill
let ring...

|-------|
|-------|
|-------|
|-------|
|-0-3-7-|
|-------|


Chorus
        D        F         C      G             D        F         C      G
|-----|---------------------------------------|------------------------------------|
|-----|---------------------------------------|------------------------------------|
|-x-x-|-7-7-7-7--10-10-10--5-5-5--12-12-12-12-|-7-7-7-7--10-10-10--5-5-5--12-12-12-|
|-x-x-|-7-7-7-7--10-10-10--5-5-5--12-12-12-12-|-7-7-7-7--10-10-10--5-5-5--12-12-12-|
|-x-x-|-5-5-5-5---8--8--8--3-3-3--10-10-10-10-|-5-5-5-5---8--8--8--3-3-3--10-10-10-|
|-x-x-|---------------------------------------|------------------------------------|
      D        F         C                 D        F         C      G
----|------------------------------------|---------------------------------------|
----|------------------------------------|---------------------------------------|
-12-|-7-7-7-7--10-10-10--5-5-5-5-5-5-5-5-|-7-7-7-7--10-10-10--5-5-5--12-12-12-12-|
-12-|-7-7-7-7--10-10-10--5-5-5-5-5-5-5-5-|-7-7-7-7--10-10-10--5-5-5--12-12-12-12-|
-10-|-5-5-5-5---8--8--8--3-3-3-3-3-5-5-5-|-5-5-5-5---8--8--8--3-3-3--10-10-10-10-|
----|------------------------------------|---------------------------------------|


Verse 2
   D            F         C
|---------------------------------------------------|
|---------------------------------------------------|
|---------------------------------------------------|x8
|---------------------------------------------------|
|-12-12-12-12--15-15-15--10-10-10-10-10-10-10-10-10-|
|-10-10-10-10--13-13-13---8--8--8--8--8--8--8--8--8-|
   P.M . . . . . . . . . . . . . . . . . . . . . . .

Guitar 2 lead fill
let ring...

|-------|-------|
|-------|-------|
|-------|-------|
|-0-3-7-|-7-5-0-|
|-------|-------|
|-------|-------|
[ Tab from: http://www.guitaretab.com/a/androids/156649.html ]
Chorus
        D        F         C      G             D        F         C      G
|-----|---------------------------------------|------------------------------------|
|-----|---------------------------------------|------------------------------------|
|-x-x-|-7-7-7-7--10-10-10--5-5-5--12-12-12-12-|-7-7-7-7--10-10-10--5-5-5--12-12-12-|
|-x-x-|-7-7-7-7--10-10-10--5-5-5--12-12-12-12-|-7-7-7-7--10-10-10--5-5-5--12-12-12-|
|-x-x-|-5-5-5-5---8--8--8--3-3-3--10-10-10-10-|-5-5-5-5---8--8--8--3-3-3--10-10-10-|
|-x-x-|---------------------------------------|------------------------------------|
     D        F         C                 D        F         C      G
---|------------------------------------|---------------------------------------|
---|------------------------------------|---------------------------------------|
12-|-7-7-7-7--10-10-10--5-5-5-5-5-5-5-5-|-7-7-7-7--10-10-10--5-5-5--12-12-12-12-|x2
12-|-7-7-7-7--10-10-10--5-5-5-5-5-5-5-5-|-7-7-7-7--10-10-10--5-5-5--12-12-12-12-|
10-|-5-5-5-5---8--8--8--3-3-3-3-3-3-3-3-|-5-5-5-5---8--8--8--3-3-3--10-10-10-10-|
---|------------------------------------|---------------------------------------|


Guitar 2 plays the solo while Guitar 1 keeps playing the chorus

Solo

|-----------------|-------------------|---------------|-----------------8----------|
|------------8-10-|------------8-8----|-10^11---------|------------8-10-8-10p8-10p8|
|-7-7-7-7-10------|-7-7-7-7-10-----10-|-------12p10-7-|-7-7-7-7-10-----------------|
|-----------------|-------------------|---------------|----------------------------|
|-----------------|-------------------|---------------|----------------------------|
|-----------------|-------------------|---------------|----------------------------|

-------|-10-10-10-8-8-8-10-10-10-8-8-8-10-10-10\8-10-|
-10p8--|-10-10-10-8-8-8-10-10-10-8-8-8-10-10-10\8-10-|
-------|---------------------------------------------|
-------|---------------------------------------------|
-------|---------------------------------------------|
-------|---------------------------------------------|


Breakdown

  D      F         C
|-5-5-5---8--8--8--3-3-3-3-3-3-|
|-7-7-7--10-10-10--5-5-5-5-5-5-|
|-7-7-7--10-10-10--5-5-5-5-5-5-|
|-7-7-7--10-10-10--5-5-5-5-5-5-|
|-5-5-5---8--8--8--3-3-3-3-3-5-|
|------------------------------|

Guitar plays chorus until end

Guitar 2
|-10-15p13-15p13-15/17-|  |-10-10-10-10-13-15-17-|-15-15-13-|
|----------------------|  |----------------------|----------|
|----------------------|x3|----------------------|----------|
|----------------------|  |----------------------|----------|
|----------------------|  |----------------------|----------|
|----------------------|  |----------------------|----------|

|-17-17^19-17^19-|
|----------------|
|----------------|
|----------------|
|----------------|
|----------------|


Outro

|------------------------------------------|---------------------------------------|
|------------------------------------------|---------------------------------------|
|------------------------------------------|---------------------------------------|
|------------------------------------------|---------------------------------------|
|------------------------------------------|---------------------------------------|
|-10-10-10-10-13-13-13-8-8-8-8-15-15-15-15-|-10-10-10-10-13-13-13-8-8-8-8-15-15-15-|

---|----------------------------------|------------------------------------------|
---|----------------------------------|------------------------------------------|
---|----------------------------------|------------------------------------------|
---|----------------------------------|------------------------------------------|
---|----------------------------------|------------------------------------------|
15-|-10-10-10-10-13-13-13-8-8-8-8-5-8-|-10-10-10-10-13-13-13-8-8-8-8-15-15-15-15-|

And thatís it!
Happy playing!
Related for Whole Lotta Love tab