Song name
# A B C D E F G H I J K L M N O P Q R S T U V W X Y Z

Andy Grammer - Crazy Beautiful tab

K so there's only one other tab on here, and it's not really very clear. So here ya go. 
the strumming is kinda weird, but you should be able to figure it out by listening to 
it. :)
Tuning: Standard

INTRO/VERSE: Play this twice for the intro, then either play softer of palm mute for the verse.
e|----------------------------------------------------------------------------|
B|----------------------------------------------------------------------------|
G|7------7---------7-----7--------4-------4-----------------------------------|
D|7-(x6)-7---------7(x6)-7--(x2)--4-(x6)--4-(x2)--5-------5-----7------7------|
A|5------x-(x2)----5-----x--------2-------x-------5-(x6)--5-(x2)7-(x6)-7------|(x2)
E|-------5---------------5----------------2-------3-------3-----5------5------|

Pre Chorus: "We get so close,..." (Listen to the strumming pattern)
e|-----------------------------3----------------------------------------------|
B|-----------------------------3----------------------------------------------|
G|--4--------------------------0----------------------------------------------|
D|--4--Then a G chord,- then --2-----7----------------------------------------|
A|--2--------------------------2-----7----------------------------------------|
E|-----------------------------0-----5----------------------------------------|

Chorus:

  "Isn't she Cra-crazy beautiful..."
e|----------------------------------------------------------------------|
B|----------------------------------------------------------------------|
G|--7-------------------------------------------------------------------|
D|--7--over and over----------------------------------------------------|
A|--5-------------------------------------------------------------------|
E|----------------------------------------------------------------------|
"Isn't she stray, strange, and wonderful?"
e|---------------------------------------------------------------------|
B|---------------------------------------------------------------------|
G|--4------------------------------------------------------------------|
D|--4--over and over---------------------------------------------------|
A|--2------------------------------------------------------------------|
E|---------------------------------------------------------------------|
"I think I love her more than I even understand"
e|----------------------------------------------------------------------------|
B|----------------------------------------------------------------------------|
G|----------------------------------------------------------------------------|
D|---5------------------------over and over-----------------------------------|
A|---5--OR just a G Chord-----------------------------------------------------|
E|---3------------------------------------------------------------------------|


Then u do the verse, pre chorus, and chorus again.

Now the bridge where he goes "ooooooh so crazy beauuuuuuuuuuutiful I  never can know her too well".

"oooh... so crazy"                      "Beauuuuuu....tiful I.."
e|--------------------------------------------------------------------|
B|--------------------------------------------------------------------|
G|--7--------------------------------------7--------------------------|
D|--7--------------------------------------7--------------------------|
A|--5--------------------------------------x--------------------------|
E|-----------------------------------------5--------------------------|

"Never can know her too well..."

e|-------------------------on "Know" and first ------On "well"---------|
B|---------------------------Syllable of----------- and "Else"---------|
G|-on "never" both times----"Anyone"-----------------------------------|
D|-2---------------------------4------------------------5--------------|
A|-2---------------------------4------------------------5--------------|
E|-0---------------------------2------------------------3--------------|

Then chorus again until the end


PLEASE RATE!!! :)
Tap to rate this tab
# A B C D E F G H I J K L M N O P Q R S T U V W X Y Z