Song name
# A B C D E F G H I J K L M N O P Q R S T U V W X Y Z

Andy Mckee - Africa tab

Africa
Andy Mckee

Tabbed from http://www.youtube.com/watch?v=dt1fB62cGbo  (sort of)
this is my first tab so sorry if theres any mistakes
i only know what some of the chords are for the verse
any help with the figer picking would be much appreciated
Capo 2nd
tuning - DGDGAd
p=pull off

Intro
D------------2p0---2p0---2p0-|
A---------------2p0---2p0----|
G-----------4~---------------|
D--5-55-55-4-----------------|
G-----------4~---------------|
D--5-55-55-4-----------------|

Verse(chords)
D-2-6-4-4-5-4-|
A-4-7-4-4-0-4-|
G-4-9-4-7-0-4-|
D-2-6-7-4-0-7-|
G-2-6-6-4-4-6-|
D-2-6-4-4-5-4-|

Chorus(chords)
First couple of times
D-5-5-5-4-|
A-2-5-5-0-|
G-0-5-0-2-|
D-0-5-0-0-|
G-0-5-0-2-|
D-*-*-*-0
last time
D-5-5-5-4-4-|
A-2-5-5-0-0-|
G-0-5-7-2-0-|
D-0-5-0-0-2-|
G-0-5-0-2-0-|
D-*-*-*-0-2-|

Back to beginning

Any help would be helpfull
Tap to rate this tab
 
# A B C D E F G H I J K L M N O P Q R S T U V W X Y Z