Song name
# A B C D E F G H I J K L M N O P Q R S T U V W X Y Z

Andy Mckee - Heathers Song tab

now i got confused with the other intro tab.. so i tried tabbng it myself.. well i 
the standard tuning version.. its all i could do.. LOL =P yhupz so here it is..

e|----------------------------------|
B|--------(7)-------(12)------------|
G|---(5)-----(7)--------------------|
D|--(5)-----------------------------|
A|-(5)------------------------------|
E|----------------------8---8-8-8-8-|


e|------------------(12)----------------|
B|--------(7)---------------(12)--------|
G|---(5)-----(7)-------------(12)-------|
D|--(5)---------------------------------|
A|-(5)----------------------------------|
E|-----------------------10------(12)-0-|


e|----------------------------------|
B|--------(7)-------(12)------------|
G|---(5)-----(7)--------------------|
D|--(5)-----------------------------|
A|-(5)------------------------------|
E|----------------------8---8-8-8-8-|


e|------------------(12)----------------|
B|--------(7)---------------(12)--------|
G|---(5)-----(7)-------------(12)-------|
D|--(5)---------------------------------|
A|-(5)----------------------------------|
E|-----------------------10------(12)-8-|


These are chords i like strumming right after the bit coz its sounds the same as 
it =P..

e|-0--0--|
B|-2--8--|
G|-0--0--|
D|-0--5--|
A|-3--7--|
E|-x--x--|

anywaiiz yeah
have fuNN figuring it out..=P


hope you guyz like it=P

JM.T
Tap to rate this tab
 
# A B C D E F G H I J K L M N O P Q R S T U V W X Y Z