Song name
# A B C D E F G H I J K L M N O P Q R S T U V W X Y Z

Angelique Kidjo - We Are One tab

This is my very first tab so sorry if there are a few mistakes. It sounds Ok to me 
:D


E|-----------------------------------------------------|
B|-----------------------------------------------------|
G|-----------------------------------------------------|
D|-----------------------------------------------------|
A|-----------------4--------------4--0--2--0--0--2--0--|
E|--0--2--4--2--0-----0--0--2--0-----------------------|

E|-----------------------------------------------------|
B|-----------------------------------------------------|
G|-----------------------------------------------------|
D|-----------------------------------------------------|
A|-----------------4--------------4--0--2--0--0--2--0--|
E|--0--2--4--2--0-----0--0--2--0-----------------------|

E|--------------------------------------------------------------------|
B|--------------------------------------------------------------------|
G|--------------------------------------------------------------------|
D|--------------------------------------------------------------------|
A|--------------------------------------2--2--4-----------------------|
E|--0--2--4--4--7--5--4--0--2--4--2--0-----------0--0--0--0--2--4--2--|

E|--------------------------------------------------------------------|
B|--------------------------------------------------------------------|
G|--------------------------------------------------------------------|
D|--------------------------------------------------------------------|
A|--------------------------------------2--2--4-----------------4-----|
E|--0--2--4--4--7--5--4--0--2--4--2--0-----------0--0--4--2--0-----0--|
Tap to rate this tab
# A B C D E F G H I J K L M N O P Q R S T U V W X Y Z