Song name
# A B C D E F G H I J K L M N O P Q R S T U V W X Y Z

Angels And Airwaves - Good Day Acoustic tab

Good Day, as performed by Angels and Airwaves acoustically.

Note: I didn't show correct strumming and I know this.  You can listen to the recording 
find the strumming.

Intro/verse riff:
e|----------------------------------------|
B|----------------------------------------|
G|----------------------------------------|
D|----------------------------------------|  x8
A|-11-11--7-7-7-7-7-7--4-4-4-4-4-/-11-----|
E|-9--9---5-5-5-4-4-4--2-2-2-0-2-/-9------|

On the end of the 8th rep you slide the root up to the 4th fret instead of the 9th and 
play:


Chorus:
e|-----------------------------|
B|-----------------------------|
G|-----------------------------|
D|-----------------------------| x3
A|-7-7-7-7-7-7-4-4-4-7-7-7-----|
E|-5-5-5-4-4-4-2-2-2-4-4-4-----|

Then go to A|-7-  for a bit
           E|-5-

Then play the Intro/verse riff x6

On the end of the 6th rep you slide the chord root to the 4th fret then play:

Chorus:
e|-----------------------------|
B|-----------------------------|
G|-----------------------------|
D|-----------------------------| x6
A|-7-7-7-7-7-7-4-4-4-7-7-7-----|
E|-5-5-5-4-4-4-2-2-2-4-4-4-----|

These are done with a more staccato strumming.
Tap to rate this tab
# A B C D E F G H I J K L M N O P Q R S T U V W X Y Z