Song name
# A B C D E F G H I J K L M N O P Q R S T U V W X Y Z

Angels And Airwaves - Adventure Acoustic tab

The Adventure (acoustic)
[this is the AOL version]

Introduction + 1st verse
Guitar 1
-------------------------------------------------|
-------------------------------------------------|
-----9-----9-----9-----9-----9-----9-----9-----9-|
-7-----7-----6-----6-----4-----4-----6-----6-----|   x6
---0-----0-----0-----0-----0-----0-----0-----0---|
-------------------------------------------------|

Chorus
Guitar 1
-------------------------------------------------|
-------------------------------------------------|
-----9-----9-----9-----9-----9-----9-----9-----9-|
-7-----7-----9-----9-----7-----7-----6-----6-----|   x2
---0-----0-----0-----0-----0-----0-----0-----0---|
-------------------------------------------------|

Guitar 2
-------------------------------------------------|
-------------------------------------------------|
-------------------------------------------------|
-----------------9xxxxx9xxxxx11xxxx11xxxx9xxxxx9-|
-----------------9xxxxx9xxxxx11xxxx11xxxx9xxxxx9-|
-------------------------------------------------|

-----------------------------------------------------|
-----------------------------------------------------|
-----------------------------------------------------|
-----7xxxxx7xxxxx9xxxxx9xxxxx11-11-11-11-12-12-12-12-|
-----7xxxxx7xxxxx9xxxxx9xxxxx11-11-11-11-12-12-12-12-|
-----------------------------------------------------|

2nd verse
Guitar 1
-------------------------------------------------|
-------------------------------------------------|
-----9-----9-----9-----9-----9-----9-----9-----9-|
-7-----7-----6-----6-----4-----4-----6-----6-----|   x4
---0-----0-----0-----0-----0-----0-----0-----0---|
-------------------------------------------------|

Guitar 2
-------------------------------------------------|
-------------------------------------------------|
-----9-----9-----9-----9-----9-----9-----9-----9-|
-7-----7-----6-----6-----4-----4-----6-----6-----|   x4
---0-----0-----0-----0-----0-----0-----0-----0---|
-------------------------------------------------|

2nd chorus
Guitar 1
-------------------------------------------------|
-------------------------------------------------|
-----9-----9-----9-----9-----9-----9-----9-----9-|
-7-----7-----6-----6-----7-----7-----6-----6-----|   x6
---0-----0-----0-----0-----0-----0-----0-----0---|
-------------------------------------------------|

Guitar 2
-------------------------------------------------|
-------------------------------------------------|
-------------------------------------------------|
-----7xxxxx7xxxxx9xxxxx9xxxxx11xxxx11xxxx9xxxxx9-|   x3
-----7xxxxx7xxxxx9xxxxx9xxxxx11xxxx11xxxx9xxxxx9-|
-------------------------------------------------|

-----------------------------------------------------|
-----------------------------------------------------|
-----------------------------------------------------|
-----7xxxxx7xxxxx9xxxxx9xxxxx11xxxx11xxxx12-12-12-12-|
-----7xxxxx7xxxxx9xxxxx9xxxxx11xxxx11xxxx12-12-12-12-|
-----------------------------------------------------|

Solo
Guitar 1
----12-------------------12-----------------12---|
-10-----10-10-12-9/10-10------10-12-9/10-10------|
--------9-------------------9------------------9-|
-------------------------------------------------|
-------------------------------------------------|
-------------------------------------------------|

-----------------------------------------------------------------------|
-12-12---9/10--12-12-9/10-10---10-12---9/10--10-12--9/10---10-12-10-12-|
-------9---------------------9-------9-------------------9-------9--11-|
-----------------------------------------------------------------------|
-----------------------------------------------------------------------|
-----------------------------------------------------------------------|

Guitar 2
-----------------------------------------------------------------|
-----------------------------------------------------------------|
-9-9-9-9-9-9-9-9-7-7-7-7-7-7-7-7-6-6-6-6-6-6-6-6-4-4-4-4-4-4-4-4-|
-9-9-9-9-9-9-9-9-7-7-7-7-7-7-7-7-6-6-6-6-6-6-6-6-4-4-4-4-4-4-4-4-|   x4
-7-7-7-7-7-7-7-7-5-5-5-5-5-5-5-5-4-4-4-4-4-4-4-4-2-2-2-2-2-2-2-2-|
-----------------------------------------------------------------|

3rd Chorus
Guitar 1
-----------------------------------------------|--|
-----------------------------------------------|--|
-----9-----9-----9-----9-----9-----9-----9-----|9-|      cut out the last bit
-7-----7-----6-----6-----4-----4-----6-----6---|--|   x8 on the 8th time
---0-----0-----0-----0-----0-----0-----0-----0-|--|

----
-12-
-11-
----
----
----

Guitar 2
-------------------------------------------------|
-------------------------------------------------|
-------------------------------------------------|
-----7xxxxx7xxxxx9xxxxx9xxxxx11xxxx11xxxx9xxxxx9-|   x3
-----7xxxxx7xxxxx9xxxxx9xxxxx11xxxx11xxxx9xxxxx9-|
-------------------------------------------------|

-----------------------------------------------------|
-----------------------------------------------------|
-----------------------------------------------------|
-----7xxxxx7xxxxx9xxxxx9xxxxx11xxxx11xxxx12-12-12-12-|
-----7xxxxx7xxxxx9xxxxx9xxxxx11xxxx11xxxx12-12-12-12-|
-----------------------------------------------------|

-------------------------------------------------|
-------------------------------------------------|
-------------------------------------------------|
-----7xxxxx7xxxxx9xxxxx9xxxxx11xxxx11xxxx9xxxxx9-|
-----7xxxxx7xxxxx9xxxxx9xxxxx11xxxx11xxxx9xxxxx9-|
-------------------------------------------------|

-----------------------------------------------------|
-----------------------------------------------------|
-----------------------------------------------------|
-----7xxxxx7xxxxx9xxxxx9xxxxx11xxxx11xxxx12-12-12-12-|
-----7xxxxx7xxxxx9xxxxx9xxxxx11xxxx11xxxx12-12-12-12-|
-----------------------------------------------------|

-------------------------------------------------|
-------------------------------------------------|
-------------------------------------------------|
-----7xxxxx7xxxxx9xxxxx9xxxxx11xxxx11xxxx9xxxxx9-|
-----7xxxxx7xxxxx9xxxxx9xxxxx11xxxx11xxxx9xxxxx9-|
-------------------------------------------------|

-----------------------------------------------------|
-----------------------------------------------------|
-----------------------------------------------------|
-----7xxxxx7xxxxx9xxxxx9xxxxx11xxxx11xxxx12-12-12-12-|
-----7xxxxx7xxxxx9xxxxx9xxxxx11xxxx11xxxx12-12-12-11-|
-----------------------------------------------------|
Tap to rate this tab
 
# A B C D E F G H I J K L M N O P Q R S T U V W X Y Z