Song name
# A B C D E F G H I J K L M N O P Q R S T U V W X Y Z

Angels And Airwaves - The Adventure Acoustic tab

Angles and Airwaves
The Adventure (acoustic)
capo 4th fret

intro
e-------------------------------------------------|
B-------------------------------------------------|
G---5---5---4---4---2---2---4---4-----------------|
D--0-0-0-0-0-0-0-0-0-0-0-0-0-0-0------------------|
A-3---3---3---3---3---3---3---3-------------------|
E-------------------------------------------------|

Chords
Em7/G6add13
e-3
B-3
G-0
D-2
A-2
E-0

Cadd9
e-3
B-3
G-0
D-2
A-3
E-0

Gmaj
e-3
B-3
G-0
D-0
A-2
E-3

Dadd11/Gsus2(maj7)
e-3
B-3
G-0
D-0
A-0
E-2

(strumming throughout song is down,down,up,up,down,up)

Verse
Em7/G6add13
Cadd9
Gmaj
Dadd11/Gsus2(maj7)

Chorus
Gmaj
Dadd11/Gsus2(maj7)
Em7/G6add13
Dadd11/Gsus2(maj7)

Bridge
Gmaj
Cadd9
Gmaj
Dadd11/Gsus2(maj7)

Lead Pt. 1
e----------------------------------------------------|
B-333-111-000-111-000----111-000---------------------|
G---------------------00---------00------------------|
D-----------------------------------000--------------|
A---------------------------------------33322--------|
E----------------------------------------------------|

Lead Pt. 2
e----------------------------------------------------|
B-3----3----3-5-1----1----3----3----3-5-1----1-------|
G---00---00-------00---00---00---00-------00---00----|
D----------------------------------------------------|
A----------------------------------------------------|
E----------------------------------------------------|
Tap to rate this tab
 
# A B C D E F G H I J K L M N O P Q R S T U V W X Y Z