Song name
# A B C D E F G H I J K L M N O P Q R S T U V W X Y Z

Angels And Airwaves - Hallucinations tab

----------------------------------------------------------------------------
               Hallucinations - Angels And Airwaves
----------------------------------------------------------------------------
The brand new single of Angels and Airwaves. This is the first tab of this song, 
so sorry for some mistake .

If you have any corrections, leave a comment, or feel free to send me an email at 
c943008@gmail.com


INTRO

Guitar 1

e|-----------------------------------------------------------------------|
B|---5---5---6---6-------------------------------------------------------|
G|-----5---5---5---5--7--5--7--5--7--5--4--5-----------------------------| x4
D|-----------------------------------------------------------------------|
A|-----------------------------------------------------------------------|
E|-----------------------------------------------------------------------|

Guitar 2

e|-----------------------------------------------------------------------|
B|-----------------------------------------------------------------------|
G|---5~------------------------------------------------------------------| x2
D|---5~--------------2~--------3~----------------------------------------|
A|---3~--------------2~--------3~----------------------------------------|
E|-------------------0~--------1~----------------------------------------|

e|-----------------------------------------------------------------------|
B|-----------------------------------------------------------------------|
G|-----------------------------------------------------------------------| x1
D|---7~--------------5~--------3~----------------------------------------|
A|---7~--------------5~--------3~----------------------------------------|
E|---5~--------------3~--------1~----------------------------------------|

e|-----------------------------------------------------------------------|
B|-----------------------------------------------------------------------|
G|---5~------------------------------------------------------------------| x2
D|---5~--------------2~--------3~----------------------------------------|
A|---3~--------------2~--------3~----------------------------------------|
E|-------------------0~--------1~----------------------------------------|

VERSE

Guitar 1 - 2   Listen for Timing

e|-----------------------------------------------------------------------|
B|-----------------------------------------------------------------------|
G|----------------5--5-5-5-5---------------------------------------------| x4
D|--3--3-3-3-3----5--5-5-5-5----5--5-5-5-5-------------------------------|
A|--3--3-3-3-3----3--3-3-3-3----5--5-5-5-5-------------------------------|
E|--1--1-1-1-1------------------3--3-3-3-3-------------------------------|
       PM.....       PM.....       PM.....

CHORUS

e|-----------------------------------------------------------------------|
B|-----------------------------------------------------------------------|
G|---5-5-------7-7-7-7-----5-5-------------------------------------------| x2
D|---x-x--5-5--x-x-x-x-----x-x--5-5--3-3-3-3-----------------------------|
A|---3-3--x-x--5-5-5-5-----3-3--x-x--x-x-x-x-----------------------------|
E|--------3-3-------------------3-3--1-1-1-1-----------------------------|

INTRO 2

Guitar 1

e|-----------------------------------------------------------------------|
B|---5---5---6---6-------------------------------------------------------|
G|-----5---5---5---5--7--5--7--5--7--5--4--5-----------------------------| x4
D|-----------------------------------------------------------------------|
A|-----------------------------------------------------------------------|
E|-----------------------------------------------------------------------|

Guitar 2

e|-----------------------------------------------------------------------|
B|-----------------------------------------------------------------------|
G|---5~------------------------------------------------------------------| x2
D|---5~--------------2~--------3~----------------------------------------|
A|---3~--------------2~--------3~----------------------------------------|
E|-------------------0~--------1~----------------------------------------|

VERSE

Guitar 1 - 2   Listen for Timing

e|-----------------------------------------------------------------------|
B|-----------------------------------------------------------------------|
G|----------------5--5-5-5-5---------------------------------------------| x4
D|--3--3-3-3-3----5--5-5-5-5----5--5-5-5-5-------------------------------|
A|--3--3-3-3-3----3--3-3-3-3----5--5-5-5-5-------------------------------|
E|--1--1-1-1-1------------------3--3-3-3-3-------------------------------|
       PM.....       PM.....       PM.....

CHORUS

e|-----------------------------------------------------------------------|
B|-----------------------------------------------------------------------|
G|---5-5-------7-7-7-7-----5-5-------------------------------------------| x4
D|---x-x--5-5--x-x-x-x-----x-x--5-5--3-3-3-3-----------------------------|
A|---3-3--x-x--5-5-5-5-----3-3--x-x--x-x-x-x-----------------------------|
E|--------3-3-------------------3-3--1-1-1-1-----------------------------|


BRIDGE 


CHORUS

e|-----------------------------------------------------------------------|
B|-----------------------------------------------------------------------|
G|---5-5-------7-7-7-7-----5-5-------------------------------------------| x6
D|---x-x--5-5--x-x-x-x-----x-x--5-5--3-3-3-3-----------------------------|
A|---3-3--x-x--5-5-5-5-----3-3--x-x--x-x-x-x-----------------------------|
E|--------3-3-------------------3-3--1-1-1-1-----------------------------|


ENDING


e|-----------------------------------------------------------------------|
B|-----------------------------------------------------------------------|
G|-----------------------------------------------------------------------| x3
D|-----------------------------------------------------------------------|
A|-----3---3----------3---3----------------------------------------------|
E|-0-0---0---0----1-1---1---1--------------------------------------------|

e|----------------------|
B|----------------------|
G|-----5~---------------|
D|-----5~---------------|
A|-----3~---------------|
E|----------------------|
Tap to rate this tab
# A B C D E F G H I J K L M N O P Q R S T U V W X Y Z