Song name
# A B C D E F G H I J K L M N O P Q R S T U V W X Y Z

Angels And Airwaves - Rite Of Spring tab

Rite Of Spring

Intro

Git 1
------------------------------|
------------------------------|
---------6-----------6--------|
-----9--------9---9-----------|
--77---7---77---7---7--7------|
------------------------------|


Git 2  (Sythesiser tabbed for guitar)

----------------------------------|
----------------------------------|
-9--------------------------------|
-9-(x32)-7-------7-------7--------|
-7-------7-(x32)-7-(x32)-7-(x32)--|
---------5-------4-------5--------|

Verse 1

Git 1

E|-------------------------------------------------------------------|
B|-------------------------------------------------------------------|
G|-------------------------------------------------------------------|
D|-----9-----9---9-----9-----9---9-----9-----9---9-----9-----9---9---|
A|-7-7---7-7---7---7-7---7-7---7---7-7---7-7---7---7-7---7-7---7-----|
E|-------------------------------------------------------------------|

E|-------------------------------------------------------------------|
B|-------------------------------------------------------------------|
G|-------------------------------------------------------------------|
D|-----9-----9---9-----9-----9---9-----9-----9---9-----9-----9---9---|
A|-0-0---0-0---0---0-0---0-0---0---0-0---0-0---0---0-0---0-0---0-----|
E|-------------------------------------------------------------------|


Chorus

Git 1

-----------------------------------------------------------------------------|
---------------------------------------------------------------------12-10-9-|
--9999999999998888999999999999-11-11-9-8-9999999999998888999999999999--------|
-----------------------------------------------------------------------------|
-----------------------------------------------------------------------------|
-----------------------------------------------------------------------------|


Git 2

---------------------------|
---------------------------|
---------------------------|
-11------9-------7---------|
-11-(x8)-9-(x8)--7-(x16)---|
-9-------7-------5---------|

end of chorus:

------------------|
------------------|
------------------|
------------------|
---7---7--7-------|
-55--55--5--------|

Post Chorus (sweeeeeeeet riff)

Git 1

----------------------------------------|
----------------------------------------|
----------------------------------------|
-6---------------6----------------------|
--7-9-7-99-7-9-7---7-9-7-99-7-9/11/7----|
----------------------------------------|


----------------------------------------|
----------------------------------------|
----------------------------------------|
-7---------------7----------------------|
--7-9-7-99-7-9-7---7-9-7-99-7-9-7/6/7---|
----------------------------------------|


----------------------------------------|
----------------------------------------|
----------------------------------------|
-6---------------6----------------------|
--7-9-7-99-7-9-7---7-9-7-99-7-9/11/7----|
----------------------------------------|

----------------------------------------|
----------------------------------------|
----------------------------------------|
-7---------------7----------------------|
--7-9-7-99-7-9-7---7-9-7-99-7-9-7-------|
----------------------------------------|

Git 2 ( in the background)

------------------------------|
------------------------------|
---------6-----------6--------|
-----9--------9---9-----------|
--77---7---77---7---7--7------|
------------------------------|


Verse 2

Git 1

E|-------------------------------------------------------------------|
B|-------------------------------------------------------------------|
G|-------------------------------------------------------------------|
D|-----9-----9---9-----9-----9---9-----9-----9---9-----9-----9---9---|
A|-7-7---7-7---7---7-7---7-7---7---7-7---7-7---7---7-7---7-7---7-----|
E|-------------------------------------------------------------------|

E|-------------------------------------------------------------------|
B|-------------------------------------------------------------------|
G|-------------------------------------------------------------------|
D|-----9-----9---9-----9-----9---9-----9-----9---9-----9-----9---9---|
A|-0-0---0-0---0---0-0---0-0---0---0-0---0-0---0---0-0---0-0---0-----|
E|-------------------------------------------------------------------|


Chorus

Git 1

-----------------------------------------------------------------------------|
---------------------------------------------------------------------12-10-9-|
--9999999999998888999999999999-11-11-9-8-9999999999998888999999999999--------|
-----------------------------------------------------------------------------|
-----------------------------------------------------------------------------|
-----------------------------------------------------------------------------|


Git 2

---------------------------|
---------------------------|
---------------------------|
-11------9-------7---------|
-11-(x8)-9-(x8)--7-(x16)---|
-9-------7-------5---------|

end of chorus:

------------------|
------------------|
------------------|
------------------|
---7---7--7-------|
-55--55--5--------|

Interlude (Oh Oh) tabbed for guitar

Git 1

--------------------------------------------|
-9--------------------9---------------------|
--9-11-9-11-11-9-11-9---9-11-9-11-11-9-11-9-|
--------------------------------------------|
--------------------------------------------|
--------------------------------------------|


----------------------------------------------|
-10---------------------10--------------------|
----9-11-9-11-11-9-11-9---9-11-9-11-11-9-11-9-|
----------------------------------------------|
----------------------------------------------|
----------------------------------------------|


Outro =  Chorus 2 Times


That's it.
Tap to rate this tab
# A B C D E F G H I J K L M N O P Q R S T U V W X Y Z