Song name
# A B C D E F G H I J K L M N O P Q R S T U V W X Y Z

Angels And Airwaves - One Last Thing tab

Ok guys here is The Tab to One Last Thing i love all the 
crazy effects here and i also did a Video Cover of this song 
here is the link http://youtu.be/x6hfT_qfWno

Intro (Wah-Pedal)
(0:00-0:20)
E-----------------------------------------------------|
B-----------------------------------------------------| 
G-------------------------------------Each Second time| x2
D-----------9-9-9-9-----------9-9-9-9----(-9-9-9-)----|
A--9-9-9-9--7-7-7-7--7-7-7-7--7-7-7-7----(-7-7-7-)----|
E--7-7-7-7-----------7-7-7-7--------------------------|


Intro cont.(Delay)
(0:21-0:37)
E---------------------------|
B-9-9-9-9-------------------| 
G----------9-9-9-9----11----| x8
D---------------------------|
A---------------------------|
E---------------------------|

Verse (Wah-Pedal)
(0:38-1:01)
E-----------------------------------------------------|
B-----------------------------------------------------| 
G-------------------------------------Each Second time| x4
D-----------9-9-9-9-----------9-9-9-9----(-9-9-9-)----|
A--9-9-9-9--7-7-7-7--7-7-7-7--7-7-7-7----(-7-7-7-)----|
E--7-7-7-7-----------7-7-7-7--------------------------|

Chorus (Delay)
(1:02-1:18)
E---------------------------|
B-9-9-9-9-------------------| 
G----------9-9-9-9----11----| x8
D---------------------------|
A---------------------------|
E---------------------------|

Verse 2 (Wah-Pedal)
(1:19-1:35)
E-----------------------------------------------------|
B-----------------------------------------------------| 
G-----------------------------------------------------| x4
D-------------------------------------Each Second time|
A--9-9-9-9---7-7-7-7--7-7-7-7--7-7-7-7--(-7-7-7-)-----|
E--7-7-7-7---7-7-7-7--7-7-7-7--7-7-7-7--(-7-7-7-)-----|


Chorus (Delay)
(1:36-1:52)
E---------------------------|
B-9-9-9-9-------------------| 
G----------9-9-9-9----11----| x8
D---------------------------|
A---------------------------|
E---------------------------|

Bridge (Palm-mute Delay)
(1:53-2:06)
E---------------------------|
B-9-9-9-9-------------------| 
G----------9-9-9-9----11----| x7
D---------------------------|
A---------------------------|
E---------------------------|

(2:07-2:08)
E-----------------------------------|
B-----------------------------------| 
G-----------------------------------| x1
D--9-9-9-9-----(-9-9-9-)------------|
A--7-7-7-7-----(-7-7-7-)------------|
E-----------------------------------|


Last Chorus
(2:09-2:43)
E---------------------------|
B-9-9-9-9-------------------| 
G----------9-9-9-9----11-11-| x16
D---------------------------|
A---------------------------|
E---------------------------|


Tap to rate this tab
# A B C D E F G H I J K L M N O P Q R S T U V W X Y Z