Song name
# A B C D E F G H I J K L M N O P Q R S T U V W X Y Z

Angels And Airwaves - Lost Words tab

Lost Words By Angels and Airwaves

|----------------------------------------------------------------|
|----------------------------------------------------------------|
|--------------11---------------------9--11--9-------------------|
|--------------12--------------------12--12--12------------------|
|----------------------------------------------------------------|
|----10---10-------10------10---10-------------------------------|
                                
|----------------------------------------------------------------|
|----------------------------------------------------7-----------|
|-----------11--------------9---11---9---------------7-----------|
|-----------12--------------12--12--12---------------------------|
|--0----0--------------------------------------------------------|
|----------------0------0-------------------7---7---------7------|

|----------------------------------------------------------------|
|--8-------7--------------------------5-----5--------------------|
|--7-------7-----------------7--------x-----x--------------------|
|----------------------------5--------5-----5--------------------|
|----------------------------------------------------------------|
|-----7--------7-----3---3------3--------3-----3-----------------|
                             
|----------------------------------------------------------------|
|----------------------------------------------------------------|
|----------11-------------11---9--11---9--------------11---------|
|----------12-------------12--12--12--12--------------12---------|
|---------------------------------------------0---0--------0-----|
|--10--10------10-----10-----------------------------------------|
  
|----------------------------------------------------------------|
|--------------------------7---------5-------7-------------------|
|----12-----11-------------7---------7-------7-------------------|
|----12-----12---------------------------------------------------|
|-0------0-------------------------------------------------------|
|-----------------7---7--------7---------7--------7--------------|
              
|----------------------------------------------------------------|
|----------------------5------5----------------------------------|
|----------7-----------x------x----------------------------------|
|----------5-----------5------5----------------------------------|
|----------------------------------------------------5-----------|
|--3---3--------3----------3-------3-------2----2---------2------|
                                
|----------------------------------------------------------------|
|----------------------------------------------------------------|
|----------------------------------------------------------------|
|----------------------------------------------------------------|
|---------5---------------------5-------------------5------------|
|-2---2--------2------3----3--------3-----3----3--------3--------|

|----------------------------------------------------------------|
|----------------------------------------------------------------|
|----------------------------------------------------------------|
|---------------------------------5------------------------------|
|---------5------------------5----5------------------------------|
|-2---2-------2-----2---2---------3------------------------------|
 
Tap to rate this tab
# A B C D E F G H I J K L M N O P Q R S T U V W X Y Z