Song name
# A B C D E F G H I J K L M N O P Q R S T U V W X Y Z

Angles - Take A Long Line tab

-------------------------------------------------------------------------------
	            TAKE A LONG LINE - The Angles
-------------------------------------------------------------------------------

Tabbed by: Bunna
Email: spunk_jockey55@hotmail.com

Tuning: E A D G B e

Intro

e|-------------------|
B|-------------------|
G|-------------------|             x4
D|-7-----------7--5--|
A|-7-----------7--5--|
E|-5-----------5--5--|

Main Riff
e|-------------------------------------------------------------------------------------------|
B|-------------------------------------------------------------------------------------------|
G|----------------------------------------------------------------------------|         x12--|
D|-------------7-------------------- 7-5-----------------------------------------------------|
A|-------------7-------------------- 7-5-----------------------------------------------------|
E|--5-5-5-5-5----5-5-5-5-5-5-5-5-------------------------------------------------------------|

Chorus
e|-----------------------|
B|-----------------------|
G|-----------------------|           x3
D|-7-7-7-7------9-9-9-9--|
A|-7-7-7-7------9-9-9-9--|
E|-5-5-5-5------7-7-7-7--|

Verse
e|----------------------------------------|
B|----------------------------------------|
G|----------------------------------------|         x6
D|-------------7-------------------- 7-5--|
A|-------------7-------------------- 7-5--|
E|--5-5-5-5-5----5-5-5-5-5-5-5-5----------|

Chorus
e|-----------------------|
B|-----------------------|
G|-----------------------|           x3
D|-7-7-7-7------9-9-9-9--|
A|-7-7-7-7------9-9-9-9--|
E|-5-5-5-5------7-7-7-7--|

Pre-Solo
e|-----------------------------------------------------------------------------|
B|-----------------------------------------------------------------------------|
G|-----------------------------------------------------------------------------|
D|-7-7-7-7-7-7-7-7-7-7-7-7-7-7-7-7-7-7-7---------------------------------------|
A|-7-7-7-7-7-7-7-7-7-7-7-7-7-7-7-7-7-7-7---------------------------------------|
E|-5-5-5-5-5-5-5-5-5-5-5-5-5-5-5-5-5-5-5---------------------------------------|

Solo
e|-----------------------------------------------------------------------------|
B|-14-12-10-13---13-12-10-12----------12---------------------------------------|
G|---------------------------------------14-13------14-13-11-10----------------|
D|-----------------------------------------------------------------------------|
A|-----------------------------------------------------------------------------|
E|-----------------------------------------------------------------------------|

e|----------------------------------12-12-11------------------------------------------|
B|-14-12-10-12-13-12-10---------------------------12----------------------------------|
G|------------------------------------------------14-13-------14-13-11-10-------------|
D|------------------------------------------------------------------------------------|
A|------------------------------------------------------------------------------------|
E|------------------------------------------------------------------------------------|

Verse
e|-------------------------------------------------------------------------------------------|
B|-------------------------------------------------------------------------------------------|
G|----------------------------------------------------------------------------|         x12--|
D|-------------7-------------------- 7-5-----------------------------------------------------|
A|-------------7-------------------- 7-5-----------------------------------------------------|
E|--5-5-5-5-5----5-5-5-5-5-5-5-5-------------------------------------------------------------|


Chorus
e|--------------------------------------------------------------------------------------------|
B|--------------------------------------------------------------------------------------------|
G|---------------------------------------------------------------------------|           x10--|
D|-7-7-7-7------9-9-9-9-----------------------------------------------------------------------|
A|-7-7-7-7------9-9-9-9-----------------------------------------------------------------------|
E|-5-5-5-5------7-7-7-7-----------------------------------------------------------------------|
Tap to rate this tab
# A B C D E F G H I J K L M N O P Q R S T U V W X Y Z