Guitaretab - guitar tabs
Song name
# A B C D E F G H I J K L M N O P Q R S T U V W X Y Z
Home / A / Angra / Paradise tab

Angra - Paradise tab

Intro :

1 parte:

Gtr 1: Con phaser
|-0-0-0-0-0-0-0-0-0-0-0-0-0-0-0--0--0--0--0--0-0-0-0--0--0--0-0-0-0-0-0-0-0-|
|-5-5-5-7-7-7-8-8-8-7-7-7-8-8-10-10-12-12-12-8-8-8-10-10-10-7-7-7-8-8-8-5-5-|
|---------------------------------------------------------------------------|
|---------------------------------------------------------------------------|
|---------------------------------------------------------------------------|
|---------------------------------------------------------------------------|

                           p p                          Ripeti
|-0-0-0-0-0-0-0-0-0-0-0-0-0-0-0-0-------0-0---0-0---------------------------|
|-8-8-8-7-7-7-5-5-5-7-7-7-5-4-0-5-0-0-0-5-4-0-5-4---------------------------|
|---------------------------------5-2-4-----4-------------------------------|
|---------------------------------------------------------------------------|
|---------------------------------------------------------------------------|
|---------------------------------------------------------------------------|

Gtr 2:
   ps MIm                     ps
|-----0-------------------------0--------------------------------------------|
|-----0-------------------------0--------------------------------------------|
|-----X-------------------------X--------------------------------------------|
|--X-2----------------------X-2-----------------------------------2-2---2----|
|--X-2----------------------X-2-----------------------------------2-2-2-2----|
|--X-0----------------------X-0-----------------------------------0-0-0-0----|
                                                                      pm ..
2 parte:

Gtr 1:
|-0-0-0-0-0-0-0-0-0-0-0-0-0-0-0--0--0--0--0--0--0--0--0-0-0-0-0-0-0-0-0-0---|
|-5-5-5-7-7-7-8-8-8-7-7-7-8-8-10-10-12-12-12-11-11-11-8-8-8-7-7-7-5-5-7-7---|
|---------------------------------------------------------------------------|
|---------------------------------------------------------------------------|
|---------------------------------------------------------------------------|
|---------------------------------------------------------------------------|

|-0--0--0--0-0-0-0-0-0-0-0-0-0-0-0-0--0--0--0--0--0--0--0--0--0--0--0--0----|
|-10-10-10-8-8-8-7-7-7-5-5-5-9-9-9-10-10-10-12-12-12-12-12-12-17-17-17-15---|
|---------------------------------------------------------------------------|
|---------------------------------------------------------------------------|
|---------------------------------------------------------------------------|
|---------------------------------------------------------------------------|

|-0--0--0--0--0--0--0--0--0-0-0-0-0-0-0--0--0--0--0--0--0-0-0-0-0-0-0-0-0-0-|
|-15-15-12-12-12-10-10-10-7-7-8-8-5-5-12-12-12-11-11-11-8-8-8-7-7-7-5-5-7-7-|
|---------------------------------------------------------------------------|
|---------------------------------------------------------------------------|
|---------------------------------------------------------------------------|
|---------------------------------------------------------------------------|

|-0--0--0--0-0-0-0-0-0-0-0-0-0-0-0-0----------------------------------------|
|-10-10-10-8-8-8-7-7-7-5-5-5-7-7-8-8----------------------------------------|
|---------------------------------------------------------------------------|
|---------------------------------------------------------------------------|
|---------------------------------------------------------------------------|
|---------------------------------------------------------------------------|
[ Tab from: http://www.guitaretab.com/a/angra/143602.html ]
Gtr 2:
  MIm              SI                LAm              MI
|-0---------0------2-------2---------5------5---------7--------7------------|
|-0---------0------2-------2---------5------5---------7--------7------------|
|-X---------X------4-------4---------5------5---------9--------9------------|
|-2---------2------4-------4---------7------7---------9--------9------------|
|-2---------2------2-----------------7----------------7---------------------|
|-0---------0------2-----------------5----------------7---------------------|

Verso:

Gtr 1:
|---------------------------------------------------------------------------|
|---------------------------------------------------------------------------|
|-----11----11--11-----11-----11-11--12----12--12-----12-----12-12----------|
|-----9--9--9-9-9--9-9-9--9-9-9--9---9--9--9-9-9--9-9-9--9-9-9--9-----------|
|---------------------------------------------------------------------------|
|---------------------------------------------------------------------------|
         pm   .    ...    ...           .    .    ...    ...

Gtr 2:                                            |Arm. ---------------------|
|--------------------------------------------------12------------------------|
|-----------------------------------------------------12---------------------|
|--------------------------------------------------------12----11------------|
|-----------------------------------------------------------12---------------|
|----------------------------------------------------------------------------|
|----------------------------------------------------------------------------|

       armonico
|---------------------------------------------------------------------------|
|---------------------------------------------------------------------------|
|-9-11-12-------------------------------------------------------------------|
|---------------------------------------------------------------------------|
|---------------------------------------------------------------------------|
|---------------------------------------------------------------------------|

Pre Chorus :
 DO               LA             SOL                     MIm
|-------3--------------------------------------------------------0-----------|
|-----3----------------------------------------------------------0-----------|
|---5-----------------54/5--------------------------------------X------------|
|-------------------7------------5-----------5-----------2-------2-----------|
|-3------------------------------------------------------2-------------------|
|-----------------5--------------3-----------3-----------0-------------------|

Chorus: suona la 2 parte dell'intro

Interludio Prima Del Slo: Con phaser

                                                          b
|---------------------------------------------------------------------------|
|---------------------------------------------------------------------------|
|---------------------------------------------------------------------------|
|-----8-9--10--9--8-------8-9-8-----8-9--10--9--8-------8-9-----------------|
|---7---------------9---9---------7---------------9---9---------------------|
|-0-------------------8---------0-------------------8-----------------------|



Solo 1 parte:
                    b      r  b  r
|-------------14~~--14(15)-14-14-14-14--------------------------------------|
|-13~~--15~~----------------------------------------------------------------|
|---------------------------------------------------------------------------|
|---------------------------------------------------------------------------|
|---------------------------------------------------------------------------|
|---------------------------------------------------------------------------|
Related for Paradise tab