Song name
# A B C D E F G H I J K L M N O P Q R S T U V W X Y Z

Angus And Julia Stone - The Beast tab

e|------------------------------------------------------------|
B|------------------------------------------------------------|
G|----13h14-16-14-13------13-------13h14-16-14-13-------------|
D|------------------16-14----14-------------------16--14------|
A|------------------------------------------------------------|
E|------------------------------------------------------------|

e|---------------------------|
B|---------------------------|
G|---------------6----8------|
D|----------6-9-----9---9----|
A|------7-9------------------|
E|----9----------------------| x2

e|------------------------------------------------|    
B|------------------------------------------------|
G|----11-11-11-11b-9---11-11-11-11b-9---8-8--6----|
D|------------------------------------------------|
A|------------------------------------------------|
E|------------------------------------------------|
Tap to rate this tab
# A B C D E F G H I J K L M N O P Q R S T U V W X Y Z