Song name
# A B C D E F G H I J K L M N O P Q R S T U V W X Y Z

Ani Difranco - Fuel tab

intro, verse, and in-between verses
(Repeat to match song)

e-------------------------------------|
b-------------------------------------|
g---9-----9-----9---------------------|
d---9-----9-----9---------------------|
a---7-----7-----7---------------------|
e-0---7-8---8-7---7-h8-p7-p7----------|

in-between the 2nd and 3rd verse
(Repeat twice then go back to the tab above)

e---------------------------|
b---------------------------|
g---7-----7-----------------|
d---7-----7-----------------|
a---5-----5-----------------|
e-0---5-6---6-5-6-6-5-5-----|

last verse
and they say that alcoholics...
But go back to the first tab when saying: go back to that corner......
(Repeat approx. 5 times)

e---3-s-5-3-3----------|
b---1-s-3-1-1----------|
g-0-0---0-0-0----------|
d-2-2-s-4-2-2----------|
a-2-3-s-5-3-3----------|
e-0--------------------|
Tap to rate this tab
# A B C D E F G H I J K L M N O P Q R S T U V W X Y Z