Song name
# A B C D E F G H I J K L M N O P Q R S T U V W X Y Z

Ani Difranco - The Diner tab

Tuning: dagdbd
intro and verse
repeat as many times as needed
d-----------0-0---------0-0-------0-0--------0-0----------0-0--------0-0--|
b-----------0-0---------0-0-------0-0--------0-0----------0-0--------0-0--|
d-----------0-0---------0-0-------0-0--------0-0----------0-0--------0-0--|
g-----------0-0---------0-0-------0-0--------0-0----------0-0--------0-0--|
a-----5-7----------5-7---------5-7--------5-7-----------------------------|
d--5-7----0-----5-7----0----5-7-------5-7---------5-7-5-9-----9-7-7-5-----|

d--------0-0-------0-0-0-0-0-------|
b--------0-0-------0-0-0-0-0-------|
d--------0-0-------0-0-0-0-0-------|
g--------0-0-------0-0-0-0-0-------|
a----------------------------------|
d-0-3b5-0---0-3b5-0----------------|

before she says: i think youre the least................
repeat as many times as needed
d----(12)------------------------|
b----(12)------------------------|
d----(12)------------------------|
g-(12)---------------------------|
a-(12)---------------------------|
d-(12)---------------------------|

i think youre the least fucked up, person ive ever met.......................
repeat as many times as needed
d--------------------|
b-5-7-9-7------------|
d--------------------|
g--------------------|
a-2-4-9-4------------|
d--------------------|
Tap to rate this tab
 
# A B C D E F G H I J K L M N O P Q R S T U V W X Y Z