Song name
# A B C D E F G H I J K L M N O P Q R S T U V W X Y Z

Ani Difranco - Marrow tab

Artist: Ani DiFranco
Song Title: Marrow
Album: Reveling/Reckoning

I've just given the outline here and given no indication of how picking pattern. If you 
watch some live versions on youtube with no horns, you'll get some ideas of how to play 
it. It's a super good song that relatively easy to play!


Intro/verse/outro

c |-----0-----0-----0------|
F |------------------------|
D#|--5-----2----9------4---|
A#|------------------------|
F |------------------------|
C#|--4-----0----7------2---|

Chorus

c |-------------------------------------------|
F |-------------------------------------------|
D#|--5--2--7--6--10--12--10--9--4--2--2--4----|
A#|-------------------------------------------|
F |-------------------------------------------|
C#|--4--0--5--4--9---12--9---7--2--0--1--2----|

Bridge                     End Bridge

c |------------9--12--7--|--9--12--14---|
F |----------------------|--------------|
D#|--9--12--7--9--12--7--|--9--12--14---|
A#|----------------------|--------------|
F |----------------------|--------------|
C#|--9--12--7--9--12--7--|--9--12--14---|
Tap to rate this tab
# A B C D E F G H I J K L M N O P Q R S T U V W X Y Z