Song name
# A B C D E F G H I J K L M N O P Q R S T U V W X Y Z

Animal Collective - Fireworks tab

Animal Collective tabs are usually not tabbed the way the band actually plays them. This 
100% how Avey Tare played the song on the album.

Riff 1:
------------------------------------------------|
------------------------------------------------|
------6-----------5-----------3-----------1-----|
---6----6------5----5------3----3------1----1---|
--8--8----8---6--6----6---4--4----4---3--3----3-|
9-----------8-----------6-----------4-----------|


Riff 2:
------------    ------------------------|
------------    ------------------------|
------------    ------------------------|
------------    ---5--------------------|
-3-6-3-3--3-    -6---6-6--6--3-6-3-3-3--|
4-4-4-4-44-4 x2 6-6-6-6-66-63-3-3-3-3-6-|
Tap to rate this tab
# A B C D E F G H I J K L M N O P Q R S T U V W X Y Z