Song name
# A B C D E F G H I J K L M N O P Q R S T U V W X Y Z

Anita Ward - Ring My Bell tab

#----------------------------------PLEASE NOTE---------------------------------#
#This file is the author's own work and represents their interpretation of the #
#song. You may only use this file for private study, scholarship, or research. #
#------------------------------------------------------------------------------##

                                  RING MY BELL
                            As recorded by Anita Ward
                         (Released as a Single in 1979)

Transcribed by Brian Murtagh

Gtr I (E A D G B E) - 'Guitar 1'
Gtr II (E A D G B E) - 'Guitar 2'
Gtr III (E A D G B E) - 'Bell'

http://www.youtube.com/watch?v=79l5M9IJrjg&feature=related

 Riff A
 4/4
  Gtr I
  E   S  S S  S  S S  e  e  S  S E   S  S  S  S S  S  S S  e  S  S  S  S  S  S
|-------11---13-11---13----11-13---|---------11---13-11---13-------11-13-13-13-|
|----13-11---13-11---13-13-11-13---|----x-13-11---13-11---13-13-13-11-13-13-13-|
|----12-----------------12---------|----x-12-----------------12-12-------------|
|----------------------------------|-------------------------------------------|
|----------------------------------|-------------------------------------------|
|----------------------------------|-------------------------------------------|
|
| Gtr II
| E.     S E     Q       E  S  S E   E.       S E     Q       E     S  S  E
|----------------------------------|-------------------------------------------|
|-8------8-------8-------8--8--8---|-9--------9-------9-------9-----9--9-------|
|----------------------------------|-------------------------------------------|
|-5------5-------5-------5--5--5---|-6--------6-------6-------6-----6--6-------|
|----------------------------------|-------------------------------------------|
|----------------------------------|-------------------------------------------|


 4/4
  Gtr I
  E   S  S S  S  S S  e  e  S  S E   S  S  S  S S  S  S S  e  S  S  S  S  S  S
|-------11---13-11---13----11-13---|---------11---13-11---13-------11-13-13-13-|
|----13-11---13-11---13-13-11-13---|----x-13-11---13-11---13-13-13-11-13-13-13-|
|----12-----------------12---------|----x-12-----------------12-12-------------|
|----------------------------------|-------------------------------------------|
|----------------------------------|-------------------------------------------|
|----------------------------------|-------------------------------------------|
|
| E.     S E     Q       E  S  S E   E.       S E     Q       E     S  S  E
|----------------------------------|-------------------------------------------|
|-8------9-------8-------8--8--8---|-8--------8-------8-------8-----8--8-------|
|----------------------------------|-------------------------------------------|
|-5--------------5-------5--5--5---|-5--------5-------5-------5-----5--5-------|
|----------------------------------|-------------------------------------------|
|----------------------------------|-------------------------------------------|


 Fill 1
    H.        Q       H       Q     Q       W           W
|-----------[13]--|-[11]----[10]--[11]--|-------------|------|
|-[13]------------|---------------------|-[13]--------|------|
|-----------------|---------------------|-------------|------|
|-----------------|---------------------|-------------|------|
|-----------------|---------------------|-------------|------|
|-----------------|---------------------|-------------|------|


 Fill 2
  W          W            Q     Q     H
|----------|----------|---------------------|
|----------|----------|-------[21]--[20]----|
|----------|----------|-[17]----------------|
|----------|----------|---------------------|
|----------|----------|---------------------|
|----------|----------|---------------------|


    Q     Q     Q     Q       W
|-------------------------|---------|
|-[18]--------[18]--------|---------|
|-------[20]--------[20]--|-[17]----|
|-------------------------|---------|
|-------------------------|---------|
|-------------------------|---------|

Fill 3

  W          W            Q     Q     H      W
|----------|----------|------------------|---------|
|----------|----------|-------[21]--[20]-|-[18]----|
|----------|----------|-[17]-------------|---------|
|----------|----------|------------------|---------|
|----------|----------|------------------|---------|
|----------|----------|------------------|---------|




Lyrics:

Intro : Riff 1 x2 and subsequently throughout (W/Fill 1 on repeat)

I'm glad you're home
Well, did you really miss me?
I guess you did by the look in your eye (look in your eye, look in your eye)
Well lay back and relax while I put away the dishes
Then you and me can rock a bell

You can ring my be-e-ell, ring my bell W/fill 2
You can ring my be-e-ell, ring my bell W/fill 3
You can ring my be-e-ell, ring my bell W/fill 2
You can ring my be-e-ell, ring my bell W/fill 3

(Same fill layout for subsequent choruses)

The night is young and full of possibilities
Well come on and let yourself be free
My love for you, so long I've been savin'
Tonight was made for me and you

You can ring my be-e-ell, ring my bell (ring my bell, ding-dong-ding)
You can ring my be-e-ell, ring my bell (ring my bell, ring-a-ling-a-ling)
You can ring my be-e-ell, ring my bell (ring my bell, ding-dong-ding)
You can ring my be-e-ell, ring my bell (ring my bell, ring-a-ling-a-ling)

(you can ring my bell, you can ring my bell
ding, dong, ding, ah-ah, ring it!
you can ring my bell, anytime, anywhere
ring it, ring it, ring it, ring it, oww!
you can ring my bell, you can ring my bell
ding, dong, ding, ah-ah, ring it!
you can ring my bell, anytime, anywhere
ring it, ring it, ring it, ring it, oww!)

You can ring my be-e-ell, ring my bell (ring my bell, ding-dong-ding)
You can ring my be-e-ell, ring my bell (ring my bell, ring-a-ling-a-ling)
You can ring my be-e-ell, ring my bell (ring my bell, ding-dong-ding)
You can ring my be-e-ell, ring my bell (ring my bell, ring-a-ling-a-ling



Tap to rate this tab
 
# A B C D E F G H I J K L M N O P Q R S T U V W X Y Z