Song name
# A B C D E F G H I J K L M N O P Q R S T U V W X Y Z

Anna Calvi - Suzanne And I tab

-----------------------------------------------------------------------------
			  Anna Calvi - Suzanne and I
-----------------------------------------------------------------------------

http://www.annacalvi.com/


Tabbed by: GyBE
Email: gybe@live.fr

Tuning: half step down



  E		     G		    E      G

-----5---4--------------------------0------3---------------------------------|
-------------------------5----------0------3---------------------------------|
------------------------------4-----1------4---------------------------------|
------------------------------------2------5---------------------------------|
------------------------------------2------5---------------------------------|
--0----------0---2---3--------------0------3---------------------------------|



   A                   Ab                       Dbm             B

------------------------------------------------4----------------------------|
--------5--7--5-------------7----5--6-----------5---------------4------------|
------------------6-----------------------------6---------------4------------|
------------------------------------------------6---------------4------------|
-----------------------------------------4------4--------2------2------------|
---5-------------------4-----------------------------------------------------|

Tabbed by GyBE
gybe@live.fr
Tap to rate this tab
 
# A B C D E F G H I J K L M N O P Q R S T U V W X Y Z